Got To get It Over

(/) Slide Up  (\) Slide Down  (h) Hammer On  (p) Pull Off  (b) Bend (r) Release (v) Vibrato


E|--------------------------------------------------------------
B|--------------------------------------------------------------
G|--------------------3--4--5--6--------------------------------
D|-----6-----1--2--4--------------4--4--2-----------3--4--5--6--
A|--4-----2--------------------------------2--3--4--------------
E|--------------------------------------------------------------



E|----------------------6--9---11--
B|-----9----------------8--11--13--
G|--9--9----------------8--11--13--
D|--9--8----------------8--11--13--
A|--8--9----------------6--9---11--
E|--9------------------------------
http://www.guitartabcreator.com
Guitar Tab Creator is intended to store guitar tab created through the tool. It currently does not support in-line text editing. Any text you place in here will be lost. If you need to comment on your tab, please use the "Tab Notes" section located below.