Keslem

(/) Slide Up  (\) Slide Down  (h) Hammer On  (p) Pull Off  (b) Bend (r) Release (v) Vibrato
E|--------------------------------------------------------------------------
B|--------------------------------------------------------------------------
G|-----------7-----------------7-----------------7--------------------------
D|--------0-----0-----------6-----6-----------5-----5-----------5--------3--
A|-----0-----------0-----6-----------6-----5-----------5-----5--------3-----
E|--0-----------------6-----------------5-----------------5--------3--------



E|------------------------------------------------------------------------------
B|------------------------------------------------------------------------------
G|-----------7-----------------7-----------------7-----------------10-----------
D|--------0-----0-----------6-----6-----------5-----5-----------8------8--------
A|-----0-----------0-----6-----------6-----5-----------5-----8------------8-----
E|--0-----------------6-----------------5-----------------8---------------------



E|-------------------------------------------------------------------------
B|-------------------------------------------------------------------------
G|----------12----------------14-12-------------12----------------14-------
D|-------10----10----------10-------10-------10----10----------11----11----
A|----10----------10----10----------------10----------10----12----------12-
E|-10----------------10----------------10----------------11----------------



E|-------------------------------------------------------------------------
B|-------------------------------------------------------------------------
G|----------14----------------15-14-------------14----------------15-14----
D|-------12----12----------12-------12-------10----10----------10-------10-
A|----12----------12----12----------------10----------10----10-------------
E|-12----------------12----------------10----------------10----------------



E|-------------------------------------------------------------------------------
B|-------------------------------------------------------------------------------
G|-----------14-----------------15--14--------------14-----------------12--------
D|--------8------8-----------8----------8--------7------7-----------7------7-----
A|-----8------------8-----8-------------------7------------7-----7------------7--
E|--8------------------8-------------------7------------------7------------------



E|--------------------------------------------------------------------------
B|--------------------------------------------------------------------------
G|-----------7-----------------7-----------------9-----------------9--------
D|--------5-----5-----------5-----5-----------7-----7-----------7-----7-----
A|-----5-----------5-----5-----------5-----7-----------7-----7-----------7--
E|--5-----------------5-----------------7-----------------7-----------------



E|--------------------------------------------------------------------------
B|--------------------------------------------------------------------------
G|-----------4-----------------4-----------------4-----------------5--4-----
D|--------2-----2-----------2-----2-----------3-----3-----------3--------3--
A|-----2-----------2-----2-----------2-----3-----------3-----3--------------
E|--2-----------------2-----------------3-----------------3-----------------



E|-----------------------------------------------------------------------------
B|-----------------------------------------------------------------------------
G|-----------2-----------------2-----------------4-----------------4-----------
D|--------0-----0-----------0-----0-----------2-----2-----------2-----2--------
A|-----0-----------0-----0-----------0-----2-----------2-----2-----------2-----
E|--0-----------------0-----------------2-----------------2--------------------



E|--------------------------------------------------------------------------
B|--------------------------------------------------------------------------
G|-----------5-----------------5-----------------7-----------------7--------
D|--------3-----3-----------3-----3-----------5-----5-----------6-----6-----
A|-----3-----------3-----3-----------3-----5-----------5-----7-----------7--
E|--3-----------------3-----------------5-----------------6-----------------



E|---------------------------------------------------------------
B|--------------------------------------------------------10-----
G|-----------9-----------------9-----------------9--------9------
D|--------7-----7-----------7-----7-----------7-----7-----7------
A|-----7-----------7-----7-----------7-----7-----------7--7------
E|--7-----------------7-----------------7-----------------7------



E|-----------------------------------
B|-----------------------------------
G|-----------------------------------
D|--10--10----9----5------5----7--7--
A|--7---7-----5----2------2----3--3--
E|--7---7-----5----2------2----3--3--



E|-------------------------------------------
B|-------------------------------------------
G|-------------------------------------------
D|--10--10----9----5----5----7--7----9----9--
A|--7---7-----5----2----2----3--3----5----5--
E|--7---7-----5----2----2----3--3----5----5--



E|----------------------------------
B|----------------------------------
G|----------------------------------
D|--10--10----9----5----3--------9--
A|--7---7-----5----2----0--------5--
E|--7---7-----5----2----0--------5--
http://www.guitartabcreator.com
Guitar Tab Creator is intended to store guitar tab created through the tool. It currently does not support in-line text editing. Any text you place in here will be lost. If you need to comment on your tab, please use the "Tab Notes" section located below.