Jees

(/) Slide Up  (\) Slide Down  (h) Hammer On  (p) Pull Off  (b) Bend (r) Release (v) Vibrato


E|---------------|-------------|-----------------|-----------------|-
B|-----3---2-3---|-5--7--------|-----------------|-----------------|-
G|-----2---2-2---|-2--4--------|-------0---------|-------0-------0-|-
D|---0---0-----0-|-0--0--------|-----0---0-------|-----0-------0---|-
A|---------------|-------------|---2-------2---2-|---4-------7-----|-
E|-0-------------|-4--5-----5--|-2-----------2---|-5-------7-------|-



E|---------------|--------------|------------------|-----------------|-
B|-----3---2-3---|-5--7---7-----|-8---10-8-----5---|-1-----1/3-------|-
G|-----2---2-2---|-2--4-----4---|----------5-----5-|-----0---------0-|-
D|---0---0-----0-|-0--0-------0-|---5--------5-----|---0---------0---|-
A|---------------|--------------|-0----------------|-3---------5-----|-
E|-0-------------|-4--5---------|------------------|-----------------|-
http://www.guitartabcreator.com
Guitar Tab Creator is intended to store guitar tab created through the tool. It currently does not support in-line text editing. Any text you place in here will be lost. If you need to comment on your tab, please use the "Tab Notes" section located below.