Imperial Matrch

(/) Slide Up  (\) Slide Down  (h) Hammer On  (p) Pull Off  (b) Bend (r) Release (v) Vibrato


E|-----------------------|--2--2--2--3-----------------|--
B|--0--0-----3--0-----0--|--------------3--------3--0--|--
G|--------0--------0-----|-----------------3--0--------|--
D|-----------------------|-----------------------------|--
A|-----------------------|-----------------------------|--
E|-----------------------|-----------------------------|--



E|--7--------7--6--5--4--3--4-----|--1--0--------------------------|----------------
B|-----0--0--------------------1--|--------4--3--2--3-----------3--|--0-----3--0----
G|--------------------------------|--------------------0--3--0-----|-----0----------
D|--------------------------------|--------------------------------|----------------
A|--------------------------------|--------------------------------|----------------
E|--------------------------------|--------------------------------|----------------
http://www.guitartabcreator.com
Guitar Tab Creator is intended to store guitar tab created through the tool. It currently does not support in-line text editing. Any text you place in here will be lost. If you need to comment on your tab, please use the "Tab Notes" section located below.