Remedy By Seether

Song: Remedy
Band: Seether
Album: Karma and Effect

Guitar 1
{Intro} =Rest=
|-Q---E-E-E-E-E-E-|-Q---E-E-E-E-E-E-|-Q---E-E-E-E-E-E-|-Q---E-E-E-======|

eb|-----------------|-----------------|-----------------|-----------------|
Bb|-----------------|-----------------|-----------------|-----------------|
Gb|-----------------|-----------------|-----------------|-----------------|
Db|-2---x-0-2-2-0-5-|-2---x-0-2-2-0-5-|-2---x-0-2-2-0-5-|-2---x-0-2-------|
Ab|-2---x-0-2-2-0-5-|-2---x-0-2-2-0-5-|-2---x-0-2-2-0-5-|-2---x-0-2-------|
Db|-2---x-0-2-2-0-5-|-2---x-0-2-2-0-5-|-2---x-0-2-2-0-5-|-2---x-0-2-------|



|-Q---E-E-E-E-E-E-|-Q---E-E-E-E-E-E-|-Q---E-E-E-E-E-E-|-Q---E-E-E-E-E-E-|

eb|-----------------|-----------------|-----------------|-----------------|
Bb|-----------------|-----------------|-----------------|-----------------|
Gb|-----------------|-----------------|-----------------|-----------------|
Db|-2---x-0-2-2-0-5-|-2---x-0-2-2-0-5-|-2---x-0-2-2-0-5-|-2---x-0-2-2-0-5-|
Ab|-2---x-0-2-2-0-5-|-2---x-0-2-2-0-5-|-2---x-0-2-2-0-5-|-2---x-0-2-2-0-5-|
Db|-2---x-0-2-2-0-5-|-2---x-0-2-2-0-5-|-2---x-0-2-2-0-5-|-2---x-0-2-2-0-5-|



|-Q---E-E-E-E-E-E-|-Q---E-E-E-E-E-E-|-Q---E-E-E-E-E-E-|-Q---E-E-E-E-E-E-|

eb|-----------------|-----------------|-----------------|-----------------|
Bb|-----------------|-----------------|-----------------|-----------------|
Gb|-----------------|-----------------|-----------------|-----------------|
Db|-2---x-0-2-2-0-5-|-2---x-0-2-2-0-5-|-2---x-0-2-2-0-5-|-2---x-0-2-2-0-5-|
Ab|-2---x-0-2-2-0-5-|-2---x-0-2-2-0-5-|-2---x-0-2-2-0-5-|-2---x-0-2-2-0-5-|
Db|-2---x-0-2-2-0-5-|-2---x-0-2-2-0-5-|-2---x-0-2-2-0-5-|-2---x-0-2-2-0-5-|

Guitar 1
{Verse 1}

|-E-E-E-E-E-E-E-E-|-E-E-E-E-E-E-E-E-|-E-E-E-E-E-E-E-E-|-E-E-E-E-E-E-E-E-|

eb|-----------------|-----------------|-----------------|-----------------|
Bb|-----------------|-----------------|-----------------|-----------------|
Gb|-----------------|-----------------|-----------------|-----------------|
Db|-----2-------0---|-----2-------5---|-----2-------0---|-----2-------5---|
Ab|---2---2---0---0-|---2---2---5---5-|---2---2---0---0-|---2---2---5---5-|
Db|-2-------0-------|-2-------5-------|-2-------0-------|-2-------5-------|



|-E-E-E-E-E-E-E-E-|-E-E-E-E-E-E-E-E-|-E-E-E-E-E-E-E-E-|-E-E-E-E-E-E-E-E-|

eb|-----------------|-----------------|-----------------|-----------------|
Bb|-----------------|-----------------|-----------------|-----------------|
Gb|-----------------|-----------------|-----------------|-----------------|
Db|-----2-------0---|-----2-------5---|-----2-------0---|-----2-------5---|
Ab|---2---2---0---0-|---2---2---5---5-|---2---2---0---0-|---2---2---5---5-|
Db|-2-------0-------|-2-------5-------|-2-------0-------|-2-------5-------|



|-E-E-E-E-E-E-E-E-|-E-E-E-E-E-E-E-E-|-E-E-E-E-E-E-E-E-|-E-E-E-E-E-E-E-E-|

eb|-----------------|-----------------|-----------------|-----------------|
Bb|-----------------|-----------------|-----------------|-----------------|
Gb|-----------------|-----------------|-----------------|-----------------|
Db|-----2-------0---|-----2-------5---|-----2-------0---|-----2-------5---|
Ab|---2---2---0---0-|---2---2---5---5-|---2---2---0---0-|---2---2---5---5-|
Db|-2-------0-------|-2-------5-------|-2-------0-------|-2-------5-------|



|-E-E-E-E-E-E-E-E-|-E-E-E-E-E-E-E-E-|-E-E-E-E-E-E-E-E-|-E-E-E-E-E-E-E-E-|

eb|-----------------|-----------------|-----------------|-----------------|
Bb|-----------------|-----------------|-----------------|-----------------|
Gb|-----------------|-----------------|-----------------|-----------------|
Db|-----2-------0---|-----2-------5---|-----2-------0---|-----2-------5---|
Ab|---2---2---0---0-|---2---2---5---5-|---2---2---0---0-|---2---2---5---5-|
Db|-2-------0-------|-2-------5-------|-2-------0-------|-2-------5-------|

Guitar 1
{Pre-Chorus 1}
==Rest==
|-E-E-E-E-E-E-E-E-|-E-E-E-E-========|

eb|-----------------|-----------------|
Bb|-----------------|-----------------|
Gb|-9-9-9-9-9-9-9-9-|-5-5-5-5---------|
Db|-7-7-7-7-7-7-7-7-|-3-3-3-3---------|
Ab|-7-7-7-7-7-7-7-7-|-3-3-3-3---------|
Db|-7-7-7-7-7-7-7-7-|-3-3-3-3---------|

Guitar 1
{Chorus 1}

|-Q---E-E-E-E-E-E-|-Q---E-E-E-E-E-E-|-Q---E-E-E-E-E-E-|-Q.---E-E-E-E-E-|

eb|-----------------|-----------------|-----------------|----------------|
Bb|-----------------|-----------------|-----------------|----------------|
Gb|-----------------|-----------------|-----------------|----------------|
Db|-2---x-0-2-2-0-5-|-2---x-0-2-2-0-5-|-2---x-0-2-2-0-5-|-7----7-7-5-5-0-|
Ab|-2---x-0-2-2-0-5-|-2---x-0-2-2-0-5-|-2---x-0-2-2-0-5-|-7----7-7-5-5-0-|
Db|-2---x-0-2-2-0-5-|-2---x-0-2-2-0-5-|-2---x-0-2-2-0-5-|-7----7-7-5-5-0-|



|-Q---E-E-E-E-E-E-|-Q---E-E-E-E-E-E-|-Q---E-E-E-E-E-E-|-Q.---E-E-E-E-E-|

eb|-----------------|-----------------|-----------------|----------------|
Bb|-----------------|-----------------|-----------------|----------------|
Gb|-----------------|-----------------|-----------------|----------------|
Db|-2---x-0-2-2-0-5-|-2---x-0-2-2-0-5-|-2---x-0-2-2-0-5-|-7----7-7-5-5-0-|
Ab|-2---x-0-2-2-0-5-|-2---x-0-2-2-0-5-|-2---x-0-2-2-0-5-|-7----7-7-5-5-0-|
Db|-2---x-0-2-2-0-5-|-2---x-0-2-2-0-5-|-2---x-0-2-2-0-5-|-7----7-7-5-5-0-|



Guitar 1
{Verse 2}

|-E-E-E-E-E-E-E-E-|-E-E-E-E-E-E-E-E-|-E-E-E-E-E-E-E-E-|-E-E-E-E-E-E-E-E-|

eb|-----------------|-----------------|-----------------|-----------------|
Bb|-----------------|-----------------|-----------------|-----------------|
Gb|-----------------|-----------------|-----------------|-----------------|
Db|-----2-------0---|-----2-------5---|-----2-------0---|-----2-------5---|
Ab|---2---2---0---0-|---2---2---5---5-|---2---2---0---0-|---2---2---5---5-|
Db|-2-------0-------|-2-------5-------|-2-------0-------|-2-------5-------|



|-E-E-E-E-E-E-E-E-|-E-E-E-E-E-E-E-E-|-E-E-E-E-E-E-E-E-|-E-E-E-E-E-E-E-E-|

eb|-----------------|-----------------|-----------------|-----------------|
Bb|-----------------|-----------------|-----------------|-----------------|
Gb|-----------------|-----------------|-----------------|-----------------|
Db|-----2-------0---|-----2-------5---|-----2-------0---|-----2-------5---|
Ab|---2---2---0---0-|---2---2---5---5-|---2---2---0---0-|---2---2---5---5-|
Db|-2-------0-------|-2-------5-------|-2-------0-------|-2-------5-------|



|-E-E-E-E-E-E-E-E-|-E-E-E-E-E-E-E-E-|-E-E-E-E-E-E-E-E-|-E-E-E-E-E-E-E-E-|

eb|-----------------|-----------------|-----------------|-----------------|
Bb|-----------------|-----------------|-----------------|-----------------|
Gb|-----------------|-----------------|-----------------|-----------------|
Db|-----2-------0---|-----2-------5---|-----2-------0---|-----2-------5---|
Ab|---2---2---0---0-|---2---2---5---5-|---2---2---0---0-|---2---2---5---5-|
Db|-2-------0-------|-2-------5-------|-2-------0-------|-2-------5-------|



|-E-E-E-E-E-E-E-E-|-E-E-E-E-E-E-E-E-|-E-E-E-E-E-E-E-E-|-E-E-E-E-E-E-E-E-|

eb|-----------------|-----------------|-----------------|-----------------|
Bb|-----------------|-----------------|-----------------|-----------------|
Gb|-----------------|-----------------|-----------------|-----------------|
Db|-----2-------0---|-----2-------5---|-----2-------0---|-----2-------5---|
Ab|---2---2---0---0-|---2---2---5---5-|---2---2---0---0-|---2---2---5---5-|
Db|-2-------0-------|-2-------5-------|-2-------0-------|-2-------5-------|

Guitar 1
{Pre-Chorus 2}
==Rest==
|-E-E-E-E-E-E-E-E-|-E-E-E-E-========|

eb|-----------------|-----------------|
Bb|-----------------|-----------------|
Gb|-9-9-9-9-9-9-9-9-|-5-5-5-5---------|
Db|-7-7-7-7-7-7-7-7-|-3-3-3-3---------|
Ab|-7-7-7-7-7-7-7-7-|-3-3-3-3---------|
Db|-7-7-7-7-7-7-7-7-|-3-3-3-3---------|

Guitar 1
{Chorus 2}

|-Q---E-E-E-E-E-E-|-Q---E-E-E-E-E-E-|-Q---E-E-E-E-E-E-|-Q.---E-E-E-E-E-|

eb|-----------------|-----------------|-----------------|----------------|
Bb|-----------------|-----------------|-----------------|----------------|
Gb|-----------------|-----------------|-----------------|----------------|
Db|-2---x-0-2-2-0-5-|-2---x-0-2-2-0-5-|-2---x-0-2-2-0-5-|-7----7-7-5-5-0-|
Ab|-2---x-0-2-2-0-5-|-2---x-0-2-2-0-5-|-2---x-0-2-2-0-5-|-7----7-7-5-5-0-|
Db|-2---x-0-2-2-0-5-|-2---x-0-2-2-0-5-|-2---x-0-2-2-0-5-|-7----7-7-5-5-0-|



|-Q---E-E-E-E-E-E-|-Q---E-E-E-E-E-E-|-Q---E-E-E-E-E-E-|-Q.---E-E-E-E-E-|

eb|-----------------|-----------------|-----------------|----------------|
Bb|-----------------|-----------------|-----------------|----------------|
Gb|-----------------|-----------------|-----------------|----------------|
Db|-2---x-0-2-2-0-5-|-2---x-0-2-2-0-5-|-2---x-0-2-2-0-5-|-7----7-7-5-5-0-|
Ab|-2---x-0-2-2-0-5-|-2---x-0-2-2-0-5-|-2---x-0-2-2-0-5-|-7----7-7-5-5-0-|
Db|-2---x-0-2-2-0-5-|-2---x-0-2-2-0-5-|-2---x-0-2-2-0-5-|-7----7-7-5-5-0-|



|-Q---E-E-E-E-E-E-|-Q---E-E-E-E-E-E-|-Q---E-E-E-E-E-E-|-Q.---E-E-E-E-E-|

eb|-----------------|-----------------|-----------------|----------------|
Bb|-----------------|-----------------|-----------------|----------------|
Gb|-----------------|-----------------|-----------------|----------------|
Db|-2---x-0-2-2-0-5-|-2---x-0-2-2-0-5-|-2---x-0-2-2-0-5-|-7----7-7-5-5-0-|
Ab|-2---x-0-2-2-0-5-|-2---x-0-2-2-0-5-|-2---x-0-2-2-0-5-|-7----7-7-5-5-0-|
Db|-2---x-0-2-2-0-5-|-2---x-0-2-2-0-5-|-2---x-0-2-2-0-5-|-7----7-7-5-5-0-|



|-Q---E-E-E-E-E-E-|-Q---E-E-E-E-E-E-|-Q---E-E-E-E-E-E-|-Q.---E-E-E-E-E-|

eb|-----------------|-----------------|-----------------|----------------|
Bb|-----------------|-----------------|-----------------|----------------|
Gb|-----------------|-----------------|-----------------|----------------|
Db|-2---x-0-2-2-0-5-|-2---x-0-2-2-0-5-|-2---x-0-2-2-0-5-|-7----7-7-5-5-0-|
Ab|-2---x-0-2-2-0-5-|-2---x-0-2-2-0-5-|-2---x-0-2-2-0-5-|-7----7-7-5-5-0-|
Db|-2---x-0-2-2-0-5-|-2---x-0-2-2-0-5-|-2---x-0-2-2-0-5-|-7----7-7-5-5-0-|

Guitar 1
{Bridge}

|-E-E-E-E-E-E-E-E-|-E-E-E-E-E-E-E-E-|-E-E-E-E-E-E-E-E-|-E-E-E-E-E-E-E-E-|

eb|-----------------|-----------------|-----------------|-----------------|
Bb|-3-3-3-3-3-3-3-3-|-0-0-0-0-0-------|-3-3-3-3-3-3-3-3-|-0-0-0-0-0-------|
Gb|-5-5-5-5-5-5-5-5-|-2-2-2-2-2-------|-5-5-5-5-5-5-5-5-|-2-2-2-2-2-------|
Db|-5-5-5-5-5-5-5-5-|-2-2-2-2-2-0-0-0-|-5-5-5-5-5-5-5-5-|-2-2-2-2-2-0-0-0-|
Ab|-3-3-3-3-3-3-3-3-|-0-0-0-0-0-0-0-0-|-3-3-3-3-3-3-3-3-|-0-0-0-0-0-0-0-0-|
Db|-----------------|-----------0-0-0-|-----------------|-----------0-0-0-|



|-E-E-E-E-E-E-E-E-|-E-E-E-E-E-E-E-E-|-E-E-E-E-E-E-E-E-|-E-E-E-E-E-E-E-E-|

eb|-----------------|-----------------|-----------------|-----------------|
Bb|-3-3-3-3-3-3-3-3-|-0-0-0-0-0-------|-3-3-3-3-3-3-3-3-|-0-0-0-0-0-------|
Gb|-5-5-5-5-5-5-5-5-|-2-2-2-2-2-------|-5-5-5-5-5-5-5-5-|-2-2-2-2-2-------|
Db|-5-5-5-5-5-5-5-5-|-2-2-2-2-2-0-0-0-|-5-5-5-5-5-5-5-5-|-2-2-2-2-2-0-0-0-|
Ab|-3-3-3-3-3-3-3-3-|-0-0-0-0-0-0-0-0-|-3-3-3-3-3-3-3-3-|-0-0-0-0-0-0-0-0-|
Db|-----------------|-----------0-0-0-|-----------------|-----------0-0-0-|


====Rest====
|-Q.----E-E-E-E-E-|-Q.----E-E-E-E-E-|-Q.----E-E-E-E-E-|-Q---============|

eb|-----------------|-----------------|-----------------|-----------------|
Bb|-----------------|-----------------|-----------------|-----------------|
Gb|-----------------|-----------------|-----------------|-----------------|
Db|-2-----0-2-2-0-5-|-2-----0-2-2-0-5-|-2-----0-2-2-0-5-|-2---------------|
Ab|-2-----0-2-2-0-5-|-2-----0-2-2-0-5-|-2-----0-2-2-0-5-|-2---------------|
Db|-2-----0-2-2-0-5-|-2-----0-2-2-0-5-|-2-----0-2-2-0-5-|-2---------------|

Guitar 1
{Solo} (Guitar Part 2 Has Solo)

|-Q---E-E-E-E-E-E-|-Q---E-E-E-E-E-E-|-Q---E-E-E-E-E-E-|-Q.---E-E-E-E-E-|

eb|-----------------|-----------------|-----------------|----------------|
Bb|-----------------|-----------------|-----------------|----------------|
Gb|-----------------|-----------------|-----------------|----------------|
Db|-2---x-0-2-2-0-5-|-2---x-0-2-2-0-5-|-2---x-0-2-2-0-5-|-7----7-7-5-5-0-|
Ab|-2---x-0-2-2-0-5-|-2---x-0-2-2-0-5-|-2---x-0-2-2-0-5-|-7----7-7-5-5-0-|
Db|-2---x-0-2-2-0-5-|-2---x-0-2-2-0-5-|-2---x-0-2-2-0-5-|-7----7-7-5-5-0-|



|-Q---E-E-E-E-E-E-|-Q---E-E-E-E-E-E-|-Q---E-E-E-E-E-E-|-Q.---E-E-E-E-E-|

eb|-----------------|-----------------|-----------------|----------------|
Bb|-----------------|-----------------|-----------------|----------------|
Gb|-----------------|-----------------|-----------------|----------------|
Db|-2---x-0-2-2-0-5-|-2---x-0-2-2-0-5-|-2---x-0-2-2-0-5-|-7----7-7-5-5-0-|
Ab|-2---x-0-2-2-0-5-|-2---x-0-2-2-0-5-|-2---x-0-2-2-0-5-|-7----7-7-5-5-0-|
Db|-2---x-0-2-2-0-5-|-2---x-0-2-2-0-5-|-2---x-0-2-2-0-5-|-7----7-7-5-5-0-|

Guitar 1
{Outro/Chorus}

|-Q---E-E-E-E-E-E-|-Q---E-E-E-E-E-E-|-Q---E-E-E-E-E-E-|-Q.---E-E-E-E-E-|

eb|-----------------|-----------------|-----------------|----------------|
Bb|-----------------|-----------------|-----------------|----------------|
Gb|-----------------|-----------------|-----------------|----------------|
Db|-2---x-0-2-2-0-5-|-2---x-0-2-2-0-5-|-2---x-0-2-2-0-5-|-7----7-7-5-5-0-|
Ab|-2---x-0-2-2-0-5-|-2---x-0-2-2-0-5-|-2---x-0-2-2-0-5-|-7----7-7-5-5-0-|
Db|-2---x-0-2-2-0-5-|-2---x-0-2-2-0-5-|-2---x-0-2-2-0-5-|-7----7-7-5-5-0-|



|-Q---E-E-E-E-E-E-|-Q---E-E-E-E-E-E-|-Q---E-E-E-E-E-E-|-Q.---E-E-E-E-E-|

eb|-----------------|-----------------|-----------------|----------------|
Bb|-----------------|-----------------|-----------------|----------------|
Gb|-----------------|-----------------|-----------------|----------------|
Db|-2---x-0-2-2-0-5-|-2---x-0-2-2-0-5-|-2---x-0-2-2-0-5-|-7----7-7-5-5-0-|
Ab|-2---x-0-2-2-0-5-|-2---x-0-2-2-0-5-|-2---x-0-2-2-0-5-|-7----7-7-5-5-0-|
Db|-2---x-0-2-2-0-5-|-2---x-0-2-2-0-5-|-2---x-0-2-2-0-5-|-7----7-7-5-5-0-|



|-Q---E-E-E-E-E-E-|-Q---E-E-E-E-E-E-|-Q---E-E-E-E-E-E-|-Q.---E-E-E-E-E-|

eb|-----------------|-----------------|-----------------|----------------|
Bb|-----------------|-----------------|-----------------|----------------|
Gb|-----------------|-----------------|-----------------|----------------|
Db|-2---x-0-2-2-0-5-|-2---x-0-2-2-0-5-|-2---x-0-2-2-0-5-|-7----7-7-5-5-0-|
Ab|-2---x-0-2-2-0-5-|-2---x-0-2-2-0-5-|-2---x-0-2-2-0-5-|-7----7-7-5-5-0-|
Db|-2---x-0-2-2-0-5-|-2---x-0-2-2-0-5-|-2---x-0-2-2-0-5-|-7----7-7-5-5-0-|



|-Q---E-E-E-E-E-E-|-Q---E-E-E-E-E-E-|-Q---E-E-E-E-E-E-|-Q.---E-E-E-E-E-||

eb|-----------------|-----------------|-----------------|----------------||
Bb|-----------------|-----------------|-----------------|----------------||
Gb|-----------------|-----------------|-----------------|----------------||
Db|-2---x-0-2-2-0-5-|-2---x-0-2-2-0-5-|-2---x-0-2-2-0-5-|-7----7-7-5-5-0-||
Ab|-2---x-0-2-2-0-5-|-2---x-0-2-2-0-5-|-2---x-0-2-2-0-5-|-7----7-7-5-5-0-||
Db|-2---x-0-2-2-0-5-|-2---x-0-2-2-0-5-|-2---x-0-2-2-0-5-|-7----7-7-5-5-0-||
Guitar Tab Creator is intended to store guitar tab created through the tool. It currently does not support in-line text editing. Any text you place in here will be lost. If you need to comment on your tab, please use the "Tab Notes" section located below.