You'll Come

(/) Slide Up  (\) Slide Down  (h) Hammer On  (p) Pull Off  (b) Bend (r) Release (v) Vibrato

E|------------------------------------------|----------------------------------------------|--
B|-----9--12--9-------9--12--9--12----------|-----9--12--9-------9--12--9--12--------------|--
G|--9--------------9------------------9--8--|--9--------------9------------------9--8------|--
D|------------------------------------------|------------------------------------------11--|--
A|------------------------------------------|----------------------------------------------|--
E|------------------------------------------|----------------------------------------------|--



E|---------9------------------------|---------9----------------------|-----
B|--9--12-----9----7h9--7-----------|--9--12-----7----7--9--7-----7--|-----
G|-------------------------9--6--9--|--------------------------9-----|-----
D|----------------------------------|--------------------------------|-----
A|----------------------------------|--------------------------------|-----
E|----------------------------------|--------------------------------|-----
http://www.guitartabcreator.com
Guitar Tab Creator is intended to store guitar tab created through the tool. It currently does not support in-line text editing. Any text you place in here will be lost. If you need to comment on your tab, please use the "Tab Notes" section located below.