Love Me With All Your Heart

(/) Slide Up  (\) Slide Down  (h) Hammer On  (p) Pull Off  (b) Bend (r) Release (v) Vibrato
E|--------------------------------------------------------------------------
B|--3--3--3--3--3--3----0--2--3--2--2----0--0--0--0--0--0-------------------
G|-----------------------------------------------------------0--2--4--2--4--
D|--------------------------------------------------------------------------
A|--------------------------------------------------------------------------
E|--------------------------------------------------------------------------



E|-----------------------------------------------------------------------------
B|--------------------------------------------------------------------------5--
G|---------------------------------------4--4---------6--6----6--7--7--4--7----
D|--5--4--5--4--2--2--4--5--7--7---4--7---------4--7--------7------------------
A|-----------------------------------------------------------------------------
E|-----------------------------------------------------------------------------



E|-----------0-------------
B|--2--2--3-----3--2--3----
G|-------------------------
D|-------------------------
A|-------------------------
E|-------------------------
http://www.guitartabcreator.com
Guitar Tab Creator is intended to store guitar tab created through the tool. It currently does not support in-line text editing. Any text you place in here will be lost. If you need to comment on your tab, please use the "Tab Notes" section located below.