National Anthem

(/) Slide Up  (\) Slide Down  (h) Hammer On  (p) Pull Off  (b) Bend (r) Release (v) Vibrato


E|----------------------|---------------------|------------------------|------------------------
B|----------------------|---------------------|------------------------|------------------------
G|----------------------|--7------------------|--------7---------------|------------------------
D|-------------------8--|-----10--8-----------|-----------10--8--7--5--|--5--7--8--8------------
A|--8-------------8-----|------------5--7--8--|--8--8------------------|--------------8---------
E|-----10--6--10--------|---------------------|------------------------|-----------------10--6--



E|----------------------|---------------------|------------------------|------------------------
B|----------------------|---------------------|------------------------|------------------------
G|----------------------|--7------------------|--------7---------------|------------------------
D|-------------------8--|-----10--8-----------|-----------10--8--7--5--|--5--7--8--8------------
A|--8-------------8-----|------------5--7--8--|--8--8------------------|--------------8---------
E|-----10--6--10--------|---------------------|------------------------|-----------------10--6--



E|----------------|--------------------|---------------------|-------------------|--
B|----------------|--------------------|---------------------|-------------------|--
G|--7--8--10--10--|--8/7------7--8--8--|--8--7---------------|-------------------|--
D|----------------|-------10-----------|--------10--8--7--5--|--5\7--8-----------|--
A|----------------|--------------------|---------------------|----------5--7--8--|--
E|----------------|--------------------|---------------------|-------------------|--



E|-----------------------------------------------|------------------------------------------
B|-----------------------------------------------|------------------------------------------
G|--------------------------5\7--8b8--7/5--------|-----------5--7--8--10-----5--7--8--5-----
D|--------8--8--7--5--5--5-----------------8--7--|--------8---------------8--------------8--
A|--8--8-----------------------------------------|--8--8------------------------------------
E|-----------------------------------------------|------------------------------------------
http://www.guitartabcreator.com
Guitar Tab Creator is intended to store guitar tab created through the tool. It currently does not support in-line text editing. Any text you place in here will be lost. If you need to comment on your tab, please use the "Tab Notes" section located below.