音の葉 otonoha

(/) Slide Up  (\) Slide Down  (h) Hammer On  (p) Pull Off  (b) Bend (r) Release (v) Vibrato


E|--------------------------------------------------------------------------------------------
B|----------1----------0----------------------1----------1----------0----------------------1--
G|-------2----------0----------2-----0-----0----------2----------0----------2-----0-----0-----
D|--0h2------------------------------------------0h2------------------------------------------
A|-------------0h2----------------------3-------------------0h2----------------------3--------
E|------------------------0h1-----3------------------------------------0h1-----3--------------



E|--------------------------------------------------------------------------------------------
B|--------1-----------0-----------------------1--------1-----------0-----------------------1--
G|-----2-----2-----0-----0-----2-----0-----0--------2-----2-----0-----0-----2-----0-----0-----
D|--------------------------------------------------------------------------------------------
A|--0-----------------------------------3--------0-----------------------------------3--------
E|--------------0-----------1-----3--------------------------0-----------1-----3--------------



E|--------------------------------------------------------------------------------------------
B|--------1-----------0-----------------------1--------1-----------0-----------------------1--
G|-----2-----2-----0-----0-----2-----0-----0--------2-----2-----0-----0-----2-----0-----0-----
D|--------------------------------------------------------------------------------------------
A|--0-----------------------------------3--------0-----------------------------------3--------
E|--------------0-----------1-----3--------------------------0-----------1-----3--------------



E|--------------------------------------------------------------------------------------------
B|--------1-----------0-----------------------1--------1-----------0-----------------------1--
G|-----2-----2-----0-----0-----2-----0-----0--------2-----2-----0-----0-----2-----0-----0-----
D|--------------------------------------------------------------------------------------------
A|--0-----------------------------------3--------0-----------------------------------3--------
E|--------------0-----------1-----3--------------------------0-----------1-----3--------------



E|--
B|--
G|--
D|--
A|--
E|--
http://www.guitartabcreator.com
Guitar Tab Creator is intended to store guitar tab created through the tool. It currently does not support in-line text editing. Any text you place in here will be lost. If you need to comment on your tab, please use the "Tab Notes" section located below.