Broken Mid Section

(/) Slide Up  (\) Slide Down  (h) Hammer On  (p) Pull Off  (b) Bend (r) Release (v) Vibrato
E|-----------0--------7--------7-----------------7--------7--5--7--3--------3--------3--0--3--
B|--------0-----0--------0--------0-----------0-----0-----------------0--------0--------------
G|-----0-----------0--------0--------0-----0-----------0-----------------0--------0-----------
D|--------------------------------------------------------------------------------------------
A|-----------------------------------------------------------------3-----------------3--------
E|--0-----------------------------------0-----------------------------------------------------



E|--5-----------5--------------7-----------5--------------------
B|-----------------------8--------8--7--------7--3--3--5--3--5--
G|-----7-----------7--------9-----------7--------4--5--------5--
D|--------7-----------7-----------------------------------------
A|--5--------5-----------7-----------5--------------3--------3--
E|-----------------------------------------------3--------------



E|-----------0--------2--------2--------0--
B|--1-----------1-----4-----------4-----0--
G|-----2-----------2--4--4-----------4--0--
D|--------2-----------4-----4-----------2--
A|--0-----------------2-----------------2--
E|--------------------------------------0--
http://www.guitartabcreator.com
Guitar Tab Creator is intended to store guitar tab created through the tool. It currently does not support in-line text editing. Any text you place in here will be lost. If you need to comment on your tab, please use the "Tab Notes" section located below.