Mighty to Save

(/) Slide Up  (\) Slide Down  (h) Hammer On  (p) Pull Off  (b) Bend (r) Release (v) Vibrato

E|---------------------------------
B|--5\10--12--9--7--5\9--10--7--5--
G|---------------------------------
D|---------------------------------
A|---------------------------------
E|---------------------------------



E|--2--0--2--0--------
B|--3--2--2--0--------
G|--2--2--2--1--------
D|--0--2--4--2--------
A|-----0--4--2--------
E|--------2--0--------
http://www.guitartabcreator.com
Guitar Tab Creator is intended to store guitar tab created through the tool. It currently does not support in-line text editing. Any text you place in here will be lost. If you need to comment on your tab, please use the "Tab Notes" section located below.