Chouwa Oto Line 2

(/) Slide Up  (\) Slide Down  (h) Hammer On  (p) Pull Off  (b) Bend (r) Release (v) Vibrato


E|-----6-----------------------|--2--2--4--4--5--4--2--0--|--2--2--4--4--5--4--2--0--|--
B|--3-----7--6--3--1--1--2--3--|--------------------------|--------------------------|--
G|-----------------------------|--------------------------|--------------------------|--
D|-----------------------------|--------------------------|--------------------------|--
A|-----------------------------|--------------------------|--------------------------|--
E|-----------------------------|--------------------------|--------------------------|--



E|--2--2--4--4--5--4--2--0--|--1--0--|--2--2--4--4--5--4--2--0--|--2--2--4--4--5--4--2--0--|--
B|--------------------------|--------|--------------------------|--------------------------|--
G|--------------------------|--------|--------------------------|--------------------------|--
D|--------------------------|--------|--------------------------|--------------------------|--
A|--------------------------|--------|--------------------------|--------------------------|--
E|--------------------------|--------|--------------------------|--------------------------|--



E|--2--2--4--4--5--4--2--0--|--0--1--1--6--6--1--|--
B|--------------------------|--------------------|--
G|--------------------------|--------------------|--
D|--------------------------|--------------------|--
A|--------------------------|--------------------|--
E|--------------------------|--------------------|--
http://www.guitartabcreator.com
Guitar Tab Creator is intended to store guitar tab created through the tool. It currently does not support in-line text editing. Any text you place in here will be lost. If you need to comment on your tab, please use the "Tab Notes" section located below.