Wazzup

(/) Slide Up  (\) Slide Down  (h) Hammer On  (p) Pull Off  (b) Bend (r) Release (v) Vibrato

E|----------------------------------------------------------------------------------------------------
B|----------------------------------------------------------------------------------------------------
G|----------------------------------------------------------------------------------------------------
D|----------------------------------------------------------------------------------------------------
A|--9------------------------9---------12--10--9--------------------------9------------------------9--
E|-----10--9--12--10--9--10-----10--9-------------12--10--9--10--0--0--0-----10--9--12--10--9--10-----



E|-----------------------------------------------
B|-----------------------------------------------
G|-----------------------------------------------
D|-----------------------------------------------
A|--9---------12--10--9--------------------------
E|-----10--9-------------12--10--9--10--0--0--0--



E|-----------------------------------------------------------
B|-----------------------------------------------------------
G|-----------------------------------------------------------
D|-----------------------------------------------------------
A|--9------------------------9---------12--10--9-------------
E|-----10--9--12--10--9--10-----10--9-------------12--10--9--



E|---------------------------------------------------------------------------------
B|---------------------------------------------------------------------------------
G|---------------------------------------------------------------------------------
D|---------------------------------------------------------------------------------
A|--9------------------------9---------12--10--9--------------------1--0-----------
E|-----10--9--12--10--9--10-----10--9-------------12--10--9--10--0--------1--0--0--



E|--------------------------------------------------
B|--------------------------------------------------
G|--------------------------------------------------
D|--------------------------------------------------
A|-----3-----4--1--0--------1--0-----------3-----4--
E|--1-----2-----------1--0--------1--0--1-----2-----



E|---------------------------------------------------------------
B|---------------------------------------------------------------
G|---------------------------------------------------------------
D|---------------------------------------------------------------
A|--1-----1-----1-----1-----1--7--1--9--1--10--1--12--10--9--10--
E|-----2-----2-----2-----2---------------------------------------
http://www.guitartabcreator.com
Guitar Tab Creator is intended to store guitar tab created through the tool. It currently does not support in-line text editing. Any text you place in here will be lost. If you need to comment on your tab, please use the "Tab Notes" section located below.