Miserable Ones - Surfin' Viking

(/) Slide Up  (\) Slide Down  (h) Hammer On  (p) Pull Off  (b) Bend (r) Release (v) Vibrato


E|-------------------------------------------3--
B|-------------------------------------------3--
G|-------------------------------------------4--
D|-------------------------------------------5--
A|-------------------------------------------5--
E|--5--5--5--5--5--5--5--5--5--5--5--5--5----3--



E|-----------------------------------------------|--3---------------------------
B|-----------------------------------------------|--3---------------------------
G|-----------------------------------------------|--4---------------------------
D|-----------------------------------------------|--5---------------------------
A|--------------4--4--5--5--4--4-----------------|--5------5--5--5--4--4--4--4--
E|--5--5--6--6--------------------5--5--6--6--5--|--3---------------------------



E|--3--|------6--------|--------------------------
B|--3--|------6--------|--------------------------
G|--4--|------7--------|--------------------------
D|--5--|------8--------|--------------------------
A|--5--|------8--------|--------------5--5--------
E|--3--|------6--------|--5--5--6--6--------6--6--
http://www.guitartabcreator.com
Guitar Tab Creator is intended to store guitar tab created through the tool. It currently does not support in-line text editing. Any text you place in here will be lost. If you need to comment on your tab, please use the "Tab Notes" section located below.