Miserable Ones - Otovo To

(/) Slide Up  (\) Slide Down  (h) Hammer On  (p) Pull Off  (b) Bend (r) Release (v) Vibrato


E|--------------------|--------------------|--------------------|--------------------
B|--------------------|--------------------|--------------------|--------------------
G|--------------------|--------------------|--------------------|--------------------
D|--------------------|--------------------|--------------------|--------------------
A|-----------3--2-----|-----------3--2-----|-----------3--2-----|--------------------
E|--2--------------3--|--2--------------3--|--0--------------3--|--2--2--2--3--0-----



E|--2---------------|--2---------------|--0---------------|--2--------------
B|--2---------------|--2---------------|--0---------------|--2--------------
G|--2---------------|--2---------------|--0---------------|--2--------------
D|--4---------------|--4---------------|--2---------------|--4--------------
A|--4---------------|--4---------------|--2---------------|--4--------------
E|--2------5--4--3--|--2------5--4--3--|--0------5--4--3--|--2--2--2--3--0--



E|-----------------------------------------
B|-----------------------------------------
G|-----------------------------------------
D|-----------------------------------------
A|--0--0--0--3--3--3--5--5--5--9--9--9--9--
E|-----------------------------------------
http://www.guitartabcreator.com
Guitar Tab Creator is intended to store guitar tab created through the tool. It currently does not support in-line text editing. Any text you place in here will be lost. If you need to comment on your tab, please use the "Tab Notes" section located below.