Miserable Ones - Coffin Raider

(/) Slide Up  (\) Slide Down  (h) Hammer On  (p) Pull Off  (b) Bend (r) Release (v) Vibrato

E|------------------------|------------------------|------------------------|------------------------
B|------------------------|------------------------|------------------------|------------------------
G|------------------------|------------------------|-----4--3---------------|------------------------
D|-----4--3---------------|-----4--3---------------|--2--------4--5------4--|-----4--3---------------
A|--2--------4--5------4--|--2--------4--5------4--|------------------------|--2--------4--5------4--
E|------------------------|------------------------|------------------------|------------------------



E|-----------------------------------------|-----------------------------------------|--------------------------------------|----------------
B|-----------------------------------------|-----------------------------------------|--------------------------------------|----------------
G|-----------------------------------------|-----------------------------------------|--------------------------------------|--5----------2--
D|--2--------------3-----------------------|--2--------------3-----------------------|--2--------------3--------------------|--5----------2--
A|--2--------------3-----------2--2--2--2--|--2--------------3-----------3--3--3--3--|--2--------------3--------2--2--2--2--|--3----------0--
E|--0--0--0--0--0--1--1--1--1--------------|--0--0--0--0--0--1--1--1--1--------------|--0--0--0--0--0--1--1--1--------------|----------------



E|-----------------------------
B|-----------------------------
G|-----------------------------
D|-----------------------------
A|--2--4--5--7--9--10--12--14--
E|-----------------------------
http://www.guitartabcreator.com
Guitar Tab Creator is intended to store guitar tab created through the tool. It currently does not support in-line text editing. Any text you place in here will be lost. If you need to comment on your tab, please use the "Tab Notes" section located below.