Dick Dale - Nitrus

(/) Slide Up  (\) Slide Down  (h) Hammer On  (p) Pull Off  (b) Bend (r) Release (v) Vibrato


E|--------------------------------------|--------------------------------------
B|--------------------------------------|--------------------------------------
G|--------------------------------------|--------------------------------------
D|--------------------------------------|--0--12--10--13--12--10--8--10--8--7--
A|--0--12--10--13--12--10--8--10--8--7--|--------------------------------------
E|--------------------------------------|--------------------------------------



E|--------------------------------------------
B|--------------------------------------------
G|--------------------------------------------
D|--------------------------------------------
A|--------------------5--5--5--8--8--8--7-----
E|--5--5--5--8--8--8--------------------------



E|--------------------|------------------------
B|--------------------|------------------------
G|--------------------|------------------------
D|--------------------|------------------------
A|--------------------|--5------------3--6--5--
E|--5--------3--6--5--|------------------------
http://www.guitartabcreator.com
Guitar Tab Creator is intended to store guitar tab created through the tool. It currently does not support in-line text editing. Any text you place in here will be lost. If you need to comment on your tab, please use the "Tab Notes" section located below.