Doom will Burn the Log of Wrath and Break the Force of Excallibur

(/) Slide Up  (\) Slide Down  (h) Hammer On  (p) Pull Off  (b) Bend (r) Release (v) Vibrato


E|-----------------------------------------------------------------------------------------
B|-----------------------------------------------------------------------------------------
G|-----10--9-----10--9-----10--9-----12--10-----10--9-----10--9------10--9--12--10--9/10--
D|--0---------0---------8---------8------------------------------10------------------------
A|-------------------------------------------8---------8-----------------------------------
D|-----------------------------------------------------------------------------------------



E|------------------------------------------------------------
B|------------------------------------------------------------
G|-----10--9/10--12--10--9/10-----10--9/10--12--10--9/10--
D|--0--------------------------8----------------------------
A|------------------------------------------------------------
D|------------------------------------------------------------



E|-----------------------------------------------------------------
B|----------------------------------------------10-------------
G|-----10--9/10--12--10--9/10------10--9/10--12----12--9~~~~~------
D|-----------------------------10--------------------------------
A|--8--------------------------------------------------------------
D|-----------------------------------------------------------------
http://www.guitartabcreator.com
Guitar Tab Creator is intended to store guitar tab created through the tool. It currently does not support in-line text editing. Any text you place in here will be lost. If you need to comment on your tab, please use the "Tab Notes" section located below.