Smoke - Intro

(/) Slide Up  (\) Slide Down  (h) Hammer On  (p) Pull Off  (b) Bend (r) Release (v) Vibrato


E|-------------------------------------------------------------------------------
B|---------------------------------------------5-8-8-5---------------------------
G|-------5---------------5-5h7p5-----------5h7---------7-7-------5-5h7p5---------
D|---5h7-----5h7-7---5h7-----------5h7-7-7-------------------5h7-----------5h7-7-
A|-7-------7-------7-------------7-------------------------7-------------7-------
E|-------------------------------------------------------------------------------



E|-8p5-------------------------8p5---------------------------
B|-----8p5-------------------------8p5-----------------------
G|---------7p5-------5-----------------7p5-------5h7p5-------
D|-------------7p5-7-----5h7-7-------------7p5-7-------7-----
A|---------------------7---------------------------------7---
E|-----------------------------------------------------------



E|-------------------------------------------------------
B|-------------------------------------------------------
G|-------5h7p5---5-5h7p5-----5h7p5---5-5h7p5---5-------5-
D|---5-7-------7---------7---------7---------7-----5-7---
A|-7-----------------------7---------------------7-------
E|-------------------------------------------------------
http://www.guitartabcreator.com
Guitar Tab Creator is intended to store guitar tab created through the tool. It currently does not support in-line text editing. Any text you place in here will be lost. If you need to comment on your tab, please use the "Tab Notes" section located below.