Frank Turner - Four Simple Words

(/) Slide Up  (\) Slide Down  (h) Hammer On  (p) Pull Off  (b) Bend (r) Release (v) Vibrato


E|-------------------------------------------------------------------------------------------------
B|--5------------------------------------------------------------------5h6p5-----------5--6--8-----
G|-----7--5--4--4h5p4--------------------------------------------5--7---------7--5--7--------------
D|---------------------7--5-----------------------5--7--------5------------------------------------
A|---------------------------7--5--3p0--2p0--3p0--------7--5---------------------------------------
E|-------------------------------------------------------------------------------------------------



E|--------8--8--8--8--7--7--7--7--8--8--8--8--7--7--7--7--5h7p5-------
B|--8--8--------------------------------------------------------------
G|---------------------------------------------------------------7b9--
D|--------------------------------------------------------------------
A|--------------------------------------------------------------------
E|--------------------------------------------------------------------
http://www.guitartabcreator.com
Guitar Tab Creator is intended to store guitar tab created through the tool. It currently does not support in-line text editing. Any text you place in here will be lost. If you need to comment on your tab, please use the "Tab Notes" section located below.