INCOMPARABLE ES TU AMOR-RENOVA

(/) Slide Up  (\) Slide Down  (h) Hammer On  (p) Pull Off  (b) Bend (r) Release (v) Vibrato

INTRO

E|--------------------------------
B|--------------------------------
G|---------12--11--9--------------
D|--10/12-------------12--10--12--
A|--------------------------------
E|--------------------------------

a los pies de la cruz

E|--------
B|--7/15--
G|--------
D|--------
A|--------
E|--------

Tu amor me dio LA SALVACION

E|----------------------
B|--8--7--8/10--8r7--8--
G|----------------------
D|----------------------
A|----------------------
E|----------------------

Padre de amor su HIJO DIO

E|----------------------
B|--8/10--8--10--10/12--
G|----------------------
D|----------------------
A|----------------------
E|----------------------

Jesus muriĆ³

E|--7--7/10---------
B|-----------10--8--
G|------------------
D|------------------
A|------------------
E|------------------




FINAL DEL CORO


E|----------8--
B|--10--12-----
G|-------------
D|-------------
A|-------------
E|-------------



E|----------10/12--10--8--8/15--15--14--14--10--10----------13--13--12--12--10--10-----------10-----
B|--12--10------------------------------------------10--10--------------------------8--8/10---------
G|--------------------------------------------------------------------------------------------------
D|--------------------------------------------------------------------------------------------------
A|--------------------------------------------------------------------------------------------------
E|--------------------------------------------------------------------------------------------------



E|--10/17--17/19--
B|----------------
G|----------------
D|----------------
A|----------------
E|----------------
http://www.guitartabcreator.com
Guitar Tab Creator is intended to store guitar tab created through the tool. It currently does not support in-line text editing. Any text you place in here will be lost. If you need to comment on your tab, please use the "Tab Notes" section located below.