Slow Dance.

(/) Slide Up  (\) Slide Down  (h) Hammer On  (p) Pull Off  (b) Bend (r) Release (v) Vibrato
E|--------------------------------
B|--------------------------------
G|--------------------------------
D|---------14----13----11----8----
A|----9---------------------------
E|----7----12----11----12----9----



E|---------------
B|---------------
G|---------------
D|---------11----
A|----9----------
E|----7----12----



E|--------------------------------------------------------------------------------
B|--------------------------------------------------------------------------------
G|--------------------------------------------------------------------------------
D|----------4----------------4-------------------9---------------------9----------
A|-------6-----6----------6-----6------------11-----11-------------11-----11------
E|--6h7-----------7--6h7-----------7--11h12-------------12--11h12-------------12--



E|-------------------------------------------------------------------------------------------
B|--14p12--------------12-----12--------12-----12--16p14----------14------16p14----------14--
G|-------------------------8------8--9------9--11---------16----------16---------16----------
D|---------16--14--16-----------------------------------------16---------------------16------
A|-------------------------------------------------------------------------------------------
E|-------------------------------------------------------------------------------------------



verse B5, E, D#, C#min(no 5)/E, A#min(no 5)/C#
Chorus B5, C#min(no 5)/E
http://www.guitartabcreator.com
Guitar Tab Creator is intended to store guitar tab created through the tool. It currently does not support in-line text editing. Any text you place in here will be lost. If you need to comment on your tab, please use the "Tab Notes" section located below.