Lies

(/) Slide Up  (\) Slide Down  (h) Hammer On  (p) Pull Off  (b) Bend (r) Release (v) Vibrato

E|-----------------------------------------------------------------
B|---7---7---7---7---9---9---9---9---6---6---6---6---6---6---6---6-
G|---6---6---6---6---6---6---6---6---6---6---6---6---6---6---6---6-
D|-----------------------------------------------------------------
A|-6---6---6---6---8---8---8---8---9---9---9---9---9---9---9---9---
E|-----------------------------------------------------------------



E|-----------------------------------------
B|---6---6---6---6-------7-------7-------7-
G|---6---6---6---6-------6-------6-------6-
D|-----------------------------------------
A|-----------------9-8-6---9-8-6---9-8-6---
E|-9---9---9---9---------------------------



E|-------------------
B|-------------------
G|------8-6-10-8---6-
D|---11----------6---
A|-8-----------------
E|-------------------



E|------------------
B|------------------
G|------13p6--------
D|------------------
A|--11--------8\16--
E|------------------

Verse D#min7(no5), C#/F, F#maj7
Chorus C#maj(no5), F#, F, D#min7(no5)
http://www.guitartabcreator.com
Guitar Tab Creator is intended to store guitar tab created through the tool. It currently does not support in-line text editing. Any text you place in here will be lost. If you need to comment on your tab, please use the "Tab Notes" section located below.