I Loe

(/) Slide Up  (\) Slide Down  (h) Hammer On  (p) Pull Off  (b) Bend (r) Release (v) Vibrato
E|-----------------------------------------------
B|--7--------------7--6--------7--------7--------
G|-----------6--------------6--------6--------6--
D|-----8--6-----6--------6--------8--------8-----
A|--9--------8-----------------9--------9--------
E|--------------------9--------------------------



E|--------6--------6--------6--------6--
B|--7--------7--------7--------7--------
G|-----6--------6--------6--------6-----
D|--9--------8--------6--------8--------
A|--------------------------------------
E|--------------------------------------



E|--6--------------------------9--7--6--------------------------------------
B|-----------9--------7-----------------7--------9--------7--------7--------
G|--------6--------6--------6-----------------7--------7--------7--------7--
D|-----8--------8--------8-----------------8--------8--------8--------8-----
A|--9--------9--------9--------9--9--9--9--------9--------9--------9--------
E|--------------------------------------------------------------------------



E|--7--9--6--
B|--7--7--7--
G|--8--7--6--
D|--9--7--8--
A|-----8--9--
E|-----9--6--



E|--6--6--9--6--
B|--7--7--6--7--
G|--6--6--6--6--
D|--8--6--6--8--
A|--9--8--8--9--
E|--6--6--9--6--

Verse F#, F or (F#/F), C#, F#
Chorus Bmaj7sus2, F#/A#, F#add9,G#
guitar jingle F# in different forms
Pre outro B, C#
Outro F#, F or (F#/F), C#, F#








http://www.guitartabcreator.com
Guitar Tab Creator is intended to store guitar tab created through the tool. It currently does not support in-line text editing. Any text you place in here will be lost. If you need to comment on your tab, please use the "Tab Notes" section located below.