Home Bound

(/) Slide Up  (\) Slide Down  (h) Hammer On  (p) Pull Off  (b) Bend (r) Release (v) Vibrato


E|----5----8----5----8---------
B|----8----5----6----5----6----
G|----5----5----7----5----5----
D|----7----5----7----5----7----
A|----7----7----5----7----8----
E|----5----8---------8---------



E|----8---------
B|----5----6----
G|----5----5----
D|----5----7----
A|----7----8----
E|----8---------
http://www.guitartabcreator.com
Guitar Tab Creator is intended to store guitar tab created through the tool. It currently does not support in-line text editing. Any text you place in here will be lost. If you need to comment on your tab, please use the "Tab Notes" section located below.