Hobo Camp

(/) Slide Up  (\) Slide Down  (h) Hammer On  (p) Pull Off  (b) Bend (r) Release (v) Vibrato
E|-------------------------
B|-------6--------------6--
G|--2\7-----7--9--7--5-----
D|-------------------------
A|-------------------------
E|-------------------------



E|---------1---------
B|----1----3----1----
G|----2----3----0----
D|----3----3----2----
A|---------1----3----
E|-------------------



E|----3--------------
B|----0----1----1----
G|----0----0----2----
D|----0----2----3----
A|----2----3---------
E|----3--------------



E|----1----3----5----3----1----
B|----3----3----6----5----3----
G|----3----4----7----5----3----
D|----3----5----7----5----3----
A|----1----5----5----3----1----
E|---------3-------------------



E|--5-----
B|--6--1--
G|--7--2--
D|--7--3--
A|--5-----
E|--------


F
I talked to your girl she said you could be better
B C F
and i could be better to
F
She said shes seen you smile oh but its been a while
B C F
and i forgot how to smile to
F
la da
B C F
and i forgot how to smile to
F
we stack our problems so high on backs of lovers
B C F
that they lose all strength to move


G C F
But soon we will be better men oh lord i know i know x2
B C
and lovers they'll regret the love they give

Pre chorus
B G d C B
And I know it's hard to be the man our mothers wanted us to be and i said

Chorus
d F
I know I know I know I know I know it's hard x2


B C
and lovers they'll regret the love they give
F B C
oh yes they will, oh yes they will

F
we stack our problems so high on backs of lovers
B C F
that they lose all strength to move
F
I want it all oh so bad but i've given all that i have
B C F
so i will throw it on the ground

Pre-chorus

Chorus x2
Chorus x3 without singing
Chorus x3

B C
and lovers they'll regret the love they give
F B C
oh yes they will, oh yes they will



B C
and lovers they'll regret the love they give x2


http://www.guitartabcreator.com
Guitar Tab Creator is intended to store guitar tab created through the tool. It currently does not support in-line text editing. Any text you place in here will be lost. If you need to comment on your tab, please use the "Tab Notes" section located below.