Death Song

(/) Slide Up  (\) Slide Down  (h) Hammer On  (p) Pull Off  (b) Bend (r) Release (v) Vibrato


E|------------------------
B|----5----5----7----7----
G|----6----6----7----7----
D|----6----4----7----6----
A|---------5---------7----
E|----5---------7---------



E|--------------
B|----7----5----
G|----7----4----
D|----7----2----
A|---------4----
E|----7---------


Slow lead
E|----5----9----2-------------------------------------------------------------
B|-------------------2h3h4p0----5----9----7----5----12----14----12----7/12----
G|----------------------------------------------------------------------------
D|----------------------------------------------------------------------------
A|----------------------------------------------------------------------------
E|----------------------------------------------------------------------------


Tremolo lead
E|----12----9----0----2----7----9----12----0----
B|----------------------------------------------
G|----------------------------------------------
D|----------------------------------------------
A|----------------------------------------------
E|----------------------------------------------
http://www.guitartabcreator.com
Guitar Tab Creator is intended to store guitar tab created through the tool. It currently does not support in-line text editing. Any text you place in here will be lost. If you need to comment on your tab, please use the "Tab Notes" section located below.