Father Spirit Jesus

(/) Slide Up  (\) Slide Down  (h) Hammer On  (p) Pull Off  (b) Bend (r) Release (v) Vibrato


E|--7----------------------7---------------------10---------------------7---
B|--10---------------------8---------------------7----------------------10--
G|--9------------7---------9-----------7---------7------------7---------9---
D|--7---7--9--7-----11--9--9--7--9--7-----11--9--7---7--9--7-----11--9--7---
A|--7----------------------7--------------------------------------------7---
E|--------------------------------------------------------------------------



E|--0----------------0-------------------0--0--0-------------------0--
B|--0----------------3-------------------3--3--0-------------------0--
G|--2----------------2-------------------4--2--2-------------------2--
D|--2----------------0-------------------4--0--2-------------------2--
A|--0--2p0--5--4--2-----0--2p0--5--4--2--2-----0--0--2p0--5--4--2--0--
E|--------------------------------------------------------------------
http://www.guitartabcreator.com
Guitar Tab Creator is intended to store guitar tab created through the tool. It currently does not support in-line text editing. Any text you place in here will be lost. If you need to comment on your tab, please use the "Tab Notes" section located below.