Celtic Riff 3

(/) Slide Up  (\) Slide Down  (h) Hammer On  (p) Pull Off  (b) Bend (r) Release (v) Vibrato

E|------12--12--12--12--14--12----------------------
B|--12--------------------------15--12--------------
G|--------------------------------------14--12--14--
D|--------------------------------------------------
A|--------------------------------------------------
E|--------------------------------------------------



E|--12--12--12--14--12--------------
B|----------------------15--12--15--
G|----------------------------------
D|----------------------------------
A|----------------------------------
E|----------------------------------



E|------12--12--12--12--14--15--14--12--14--12--10--12--10------10----------12--0--0--0--
B|--15------------------------------------------------------12------12--10---------------
G|---------------------------------------------------------------------------------------
D|---------------------------------------------------------------------------------------
A|---------------------------------------------------------------------------------------
E|---------------------------------------------------------------------------------------
http://www.guitartabcreator.com
Guitar Tab Creator is intended to store guitar tab created through the tool. It currently does not support in-line text editing. Any text you place in here will be lost. If you need to comment on your tab, please use the "Tab Notes" section located below.