Celtic Riff 1

(/) Slide Up  (\) Slide Down  (h) Hammer On  (p) Pull Off  (b) Bend (r) Release (v) Vibrato

E|----------------------------------------------
B|----------------------------------------------
G|----------------------------------------------
D|------------7--------9--------10--9--7--9-----
A|--10--7--7-----7--7-----7--7---------------7--
E|----------------------------------------------



E|-------------------------------
B|-------------------------------
G|-------------------------------
D|------------7------------------
A|--7--9--10-----10--9--7--9--5--
E|-------------------------------



E|-------------------------------------------------
B|-------------------------------------------------
G|-------------------------------------------------
D|------------7--------9--------10--9--7--7--7--7--
A|--10--7--7-----7--7-----7--7---------------------
E|-------------------------------------------------



E|--------------------------------
B|--------------------------------
G|------------7-------------------
D|--7--9--10-----10--9--7---------
A|-------------------------10--9--
E|--------------------------------
http://www.guitartabcreator.com
Guitar Tab Creator is intended to store guitar tab created through the tool. It currently does not support in-line text editing. Any text you place in here will be lost. If you need to comment on your tab, please use the "Tab Notes" section located below.