Cannons

(/) Slide Up  (\) Slide Down  (h) Hammer On  (p) Pull Off  (b) Bend (r) Release (v) Vibrato


E|----------------------------------
B|----------------------------------
G|-------------9-9-9-9-9-8-8-9------
D|-6/7-7-7-7-6-----------------9/11-
A|----------------------------------
E|----------------------------------



E|-----------------------------
B|-----------------------------
G|-----------9-9-9-9-9-8-8-9---
D|-6/7-7-7-6-----------------9-
A|-----------------------------
E|-----------------------------



E|-----------------12-12-12-12-12-11-11-12-------
B|-9/10-10-10-10-9-------------------------12/14-
G|-----------------------------------------------
D|-----------------------------------------------
A|-----------------------------------------------
E|-----------------------------------------------



E|-----------------12-12-12-12-12-11-11-12----
B|-9/10-10-10-10-9-------------------------12-
G|--------------------------------------------
D|--------------------------------------------
A|--------------------------------------------
E|--------------------------------------------
http://www.guitartabcreator.com
Guitar Tab Creator is intended to store guitar tab created through the tool. It currently does not support in-line text editing. Any text you place in here will be lost. If you need to comment on your tab, please use the "Tab Notes" section located below.