Give a Little Bit

(/) Slide Up  (\) Slide Down  (h) Hammer On  (p) Pull Off  (b) Bend (r) Release (v) Vibrato


E|-------------------------------------------
B|--7--------5--------7--------7/8-----------
G|-----7--------6--------7----------9--6--7--
D|--------7--------7--------7----------------
A|-------------------------------------------
E|-------------------------------------------



E|------------------|------------------
B|--2h3--2----------|--2h3--2----------
G|----------2h4--2--|----------2/4--2--
D|------------------|------------------
A|------------------|------------------
E|------------------|------------------



E|-----------------------0-------------------------|-----
B|-----2--------3-----------2-------7--7--7--7--7--|-----
G|--------------------0-------------x--x--x--x--x--|-----
D|--2--------4-----------------6/7--7--7--7--7--7--|-----
A|--------0--------0-------------------------------|-----
E|-------------------------------------------------|-----



E|---------------------------------|-------------------|--
B|---------------------------------|-------------------|--
G|----------2----------------2-----|-------------------|--
D|--2h4--4-----4--4--2h4--4-----4--|-------------2--4--|--
A|---------------------------------|--2--4--4b5--------|--
E|---------------------------------|-------------------|--



E|---------------------------------|-------------------|-------------------|--
B|---------------------------------|-------------------|-------------------|--
G|---------------------------------|-------------------|-------------4--6--|--
D|---------------------------------|-------------2--4--|--4--6--6b7--------|--
A|----------0----------------0-----|--2--4--4b5--------|-------------------|--
E|--0h2--2-----2--2--0h2--2-----2--|-------------------|-------------------|--



E|---------------------------------|-------------------|--
B|---------------------------------|-------------------|--
G|----------2----------------2-----|-------------------|--
D|--2h4--4-----4--4--2h4--4-----4--|-------------------|--
A|---------------------------------|--2--4--4b5--4--2--|--
E|---------------------------------|-------------------|--



E|---------------------------------|-------------------|-------------------|--
B|---------------------------------|-------------------|-------------------|--
G|---------------------------------|-------------------|-------------------|--
D|---------------------------------|-------------------|--4--6--6b7--6--4--|--
A|----------0----------------0-----|--2--4--4b5--4--2--|-------------------|--
E|--0h2--2-----2--2--0h2--2-----2--|-------------------|-------------------|--



E|---------------------------------|---------------------------------|--
B|---------------------------------|---------------------------------|--
G|----------2----------------2-----|------------------------------2--|--
D|--2h4--4-----4--4--2h4--4-----4--|------------------------------2--|--
A|---------------------------------|----------------3--------0h2--0--|--
E|---------------------------------|--3--5/7--5--3-----2--3----------|--



E|---------------------------------|--
B|---------------------------------|--
G|---------------------------------|--
D|---------------------------------|--
A|----------0----------------0-----|--
E|--0h2--2-----2--2--0h2--2-----2--|--



E|-----------------------0------------------|-----------------------0------------------|--
B|-----2--------3-----------2---------------|-----2--------3-----------2---------------|--
G|--------------------0-------------2h4--2--|--------------------0-------------2h4--2--|--
D|--2--------4-----------------2h4----------|--2--------4-----------------2h4----------|--
A|--------0--------0------------------------|--------0--------0------------------------|--
E|------------------------------------------|------------------------------------------|--



E|--2--2--2----7--7--7----9---9---9---x--7--x--2--2--|--
B|--3--3--3----8--8--8----10--10--10--x--8--x--3--3--|--
G|--2--2--2----7--7--7----9---9---9---x--7--x--2--2--|--
D|---------------------------------------------------|--
A|---------------------------------------------------|--
E|---------------------------------------------------|--



E|--------------------------|------------------------------------------------|--
B|--------------------------|--5--------7--------8---------------------------|--
G|--------------------------|-----6--------7--------9--6--6------6--6--7--7--|--
D|---------------------5h7--|--------7--------7------------------------------|--
A|--3--5/7--5---------------|------------------------------------------------|--
E|-------------8--5h7-------|------------------------------------------------|--



E|------------------------------|-------5-----------------|--
B|------------5-----------------|-------------------------|--
G|--4p2--4/6--6----4p2----------|--4b6-----4b6r4--2h4--2--|--
D|----------------------4p2--0--|-------------------------|--
A|------------------------------|-------------------------|--
E|------------------------------|-------------------------|--



E|--2--2--2----7--7--7----9---9---9---x--7--x--2--2--|--
B|--3--3--3----8--8--8----10--10--10--x--8--x--3--3--|--
G|--2--2--2----7--7--7----9---9---9---x--7--x--2--2--|--
D|---------------------------------------------------|--
A|---------------------------------------------------|--
E|---------------------------------------------------|--



E|-----------------------------|----------------|--
B|-----------------------------|----------------|--
G|-----------------------------|----------------|--
D|---------------------5h7--5--|----------------|--
A|--3--5/7--5------------------|--------5/7--5--|--
E|-------------8--5h7----------|--2--0----------|--
http://www.guitartabcreator.com
Guitar Tab Creator is intended to store guitar tab created through the tool. It currently does not support in-line text editing. Any text you place in here will be lost. If you need to comment on your tab, please use the "Tab Notes" section located below.