Faithfully - Boyce Avenue

(/) Slide Up  (\) Slide Down  (h) Hammer On  (p) Pull Off  (b) Bend (r) Release (v) Vibrato


E|-------------------|-------------------|-------------------------------|--
B|-------------------|-------------------|-------------------------------|--
G|-------------------|-------------------|-------------------------------|--
D|--8--6--9--8--6h8--|--8--6--9--8--6h8--|--8--6--9--8\4--4--1--1--3--4--|--
A|-------------------|-------------------|-------------------------------|--
E|-------------------|-------------------|-------------------------------|--



E|--x------x------x------x------------------------x------x------x---------------------------|--
B|--x------x------x------x------------------------x------x------x---------------------------|--
G|--3------6------4------3------------------------3------6------4----------------------6/8--|--
D|--4------4------4------4----4/6\4---------------4------4------4------6h8--4--3--3/4-------|--
A|--4------6------2------4-------------4/6\4------4------6------2---------------------------|--
E|--2------x------x------2------------------------2------x------x---------------------------|--



E|--x------x------------------------|--x------x--------------------------|--
B|--6------x------------------------|--6------x--------------------------|--
G|--6------3------------------------|--6------3--------------------------|--
D|--4------4----11/13\11--9\8--9\8--|--4------4-------4/6--6/8--4--------|--
A|--x------x------------------------|--x------x----4---------------6--4--|--
E|--x------x------------------------|--x------x--------------------------|--



E|--x------x-------------------|--x------x------x-----------------------------|--
B|--6------x-------------------|--6------6------6-----------------------------|--
G|--6------3-------------------|--6------6------6-----------------------------|--
D|--4------4----6--9--8--6--8--|--6------8------6----3h4--6----8--9--8--6--4--|--
A|--x------x-------------------|--4------x------4-----------------------------|--
E|--x------x-------------------|--x------x------x-----------------------------|--



E|-------------------------|-------------------------|-----------------------------|--
B|--7----------------------|--7----------------------|--7------------------7-------|--
G|-----6--4----\3--3/4--6--|-----6--4----\3--3/4--6--|-----6--4----3/4--6-----6/8--|--
D|-------------------------|-------------------------|-----------------------------|--
A|-------------------------|-------------------------|-----------------------------|--
E|-------------------------|-------------------------|-----------------------------|--



E|--x------x------x------x---------------------------------------------|--
B|--x------x------4------x---------11--9\7-----------------------------|--
G|--3------6------4------3------------------8--6--8--------------------|--
D|--4------4------4------4----6/8--------------------8\6--4--6/8--6/8--|--
A|--4------6------2------4---------------------------------------------|--
E|--2------x------x------2---------------------------------------------|--



E|--x------x------x-------------------------|--x------x------------------------|--
B|--x------x------x-------------------------|--6------x------------------------|--
G|--3------6------4--------------------6/8--|--6------3------------------------|--
D|--4------4------4----6h8--4--3--3/4-------|--4------4----11/13\11--9\8--9\8--|--
A|--4------6------2-------------------------|--x------x------------------------|--
E|--2------x------x-------------------------|--x------x------------------------|--



E|--x------x------------------------------------|--x------x-------------------|--
B|--6------x---------7--9--9b11r7h9-----7-------|--6------x-------------------|--
G|--6------3----6/8------------------8-----8\3--|--6------3-------------------|--
D|--4------4------------------------------------|--4------4----6--9--8--6--8--|--
A|--x------x------------------------------------|--x------x-------------------|--
E|--x------x------------------------------------|--x------x-------------------|--



E|--x------x------x---------------------------------|--
B|--6------6------6---------------------------------|--
G|--6------6------6---------------------------6--8--|--
D|--6------8------6----3h4--6--8--9--8--6--4--4--4--|--
A|--4------x------4---------------------------------|--
E|--x------x------x---------------------------------|--



E|-------------------------|-------------------------|---------------------------------|--
B|--7----------------------|--7----------------------|--7----------------------7-------|--
G|-----6--4----\3--3/4--6--|-----6--4----\3--3/4--6--|-----6--4----\3--3/4--6-----6/8--|--
D|-------------------------|-------------------------|---------------------------------|--
A|-------------------------|-------------------------|---------------------------------|--
E|-------------------------|-------------------------|---------------------------------|--



E|--x------x------x------x-----|-----------------------------|---------------------------|--
B|--x------6------9------12----|----11--9--11b12--11--9------|--11--9--11b12--11--9------|--
G|--3------6------8------11----|-------------------------11--|-----------------------11--|--
D|--4------4------6------9-----|-----------------------------|---------------------------|--
A|--4------6------x------x-----|-----------------------------|---------------------------|--
E|--2------x------x------x-----|-----------------------------|---------------------------|--



E|---------------------------9--14--9/11--|--11h13--13b14--13b14--11--9-------------|--
B|--11--9--11b12--11----/12---------------|------------------------------14b16--14--|--
G|----------------------------------------|-----------------------------------------|--
D|----------------------------------------|-----------------------------------------|--
A|----------------------------------------|-----------------------------------------|--
E|----------------------------------------|-----------------------------------------|--



E|------------------------------------------------------------|----------------------------------
B|--12--11--12--14--12h14----12h14p12--12--11--12--14--12h14--|--12h14--12--11--12p11--9--11b12--
G|------------------------------------------------------------|----------------------------------
D|------------------------------------------------------------|----------------------------------
A|------------------------------------------------------------|----------------------------------
E|------------------------------------------------------------|----------------------------------



E|------------------------------------------|--------------------------------------|--
B|--11--9-----------------------------------|--------------------------------------|--
G|---------11--8-------------------8h10/11--|---------11h13--13b15p11h13-----------|--
D|----------------11--8\6----9/11-----------|--11/13------------------------13\11--|--
A|------------------------------------------|--------------------------------------|--
E|------------------------------------------|--------------------------------------|--



E|--x------x------x-------14--|---------14--14------14------14h16--16--16--|--
B|--7------9------11----------|--14/16----------16------16-----------------|--
G|--6------8------10----------|--------------------------------------------|--
D|--4------6------11----------|--------------------------------------------|--
A|--x------x------x-----------|--------------------------------------------|--
E|--x------x------x-----------|--------------------------------------------|--



E|--14--------------------------------------|----------------------------------|--
B|------16p14--16--14-----------------------|--9b11--9--11b12--11--9-----------|--
G|---------------------13b15b13p11------11--|-------------------------11--6/8--|--
D|----------------------------------13------|----------------------------------|--
A|------------------------------------------|----------------------------------|--
E|------------------------------------------|----------------------------------|--
http://www.guitartabcreator.com
Guitar Tab Creator is intended to store guitar tab created through the tool. It currently does not support in-line text editing. Any text you place in here will be lost. If you need to comment on your tab, please use the "Tab Notes" section located below.