second try

(/) Slide Up  (\) Slide Down  (h) Hammer On  (p) Pull Off  (b) Bend (r) Release (v) Vibrato
E|-------------------------
B|-------------------------
G|-------------------------
D|-------8\7-5-------8\7-5-
A|-5-8-5-------5-8-5-------
E|-5-8-5-------5-8-5-------



E|---------------------
B|---------------------
G|---------------------
D|-------8\7-5-7-5-7-7-
A|-5-8-5---------------
E|-5-8-5---------------



E|-----------------------------
B|-----------------------------
G|---------------------8-10-10-
D|-------8\7-5-7-5-7/9---------
A|-5-8-5-----------------------
E|-5-8-5-----------------------



E|----------------------------------8--10--10--
B|--10--8--------------------8--10-------------
G|---------9--7--7--9--7--9--------------------
D|---------------------------------------------
A|---------------------------------------------
E|---------------------------------------------
http://www.guitartabcreator.com
Guitar Tab Creator is intended to store guitar tab created through the tool. It currently does not support in-line text editing. Any text you place in here will be lost. If you need to comment on your tab, please use the "Tab Notes" section located below.