first try

(/) Slide Up  (\) Slide Down  (h) Hammer On  (p) Pull Off  (b) Bend (r) Release (v) Vibrato

(W|WW) Whole (H|HH) Half (Q|QQ) Quarter (E|EE) 8th (S|SS) 16th (T|TT) 32nd (X|XX) 64th

t: H H H H H H H H H H
E|-------------------------------
B|-------------------------------
G|-------------------------------
D|-----------8\7--5--7--5--7--7--
A|--5--8--5----------------------
E|--5--8--5----------------------


t: H H H H H
E|----------------
B|----------------
G|----------------
D|-----------8\7--
A|--5--8--5-------
E|--5--8--5-------
http://www.guitartabcreator.com
Guitar Tab Creator is intended to store guitar tab created through the tool. It currently does not support in-line text editing. Any text you place in here will be lost. If you need to comment on your tab, please use the "Tab Notes" section located below.