shine on your crazy diamond by pink floyd- Rom Hes

(/) Slide Up  (\) Slide Down  (h) Hammer On  (p) Pull Off  (b) Bend (r) Release (v) Vibrato
E|-----------------|-----------------------------|-----------------------------|--
B|--18b20--18--20--|-------------------------15--|-----------------15------15--|--
G|-----------------|------15--17--17b19--17------|--17b19--15--17------17------|--
D|-----------------|--17-------------------------|-----------------------------|--
A|-----------------|-----------------------------|-----------------------------|--
E|-----------------|-----------------------------|-----------------------------|--



E|------------------------------------|-------------------------------------------|--
B|------------------------------------|-------------------------------------------|--
G|--14p15p14------14--15--15------15--|--12/14--12/15----15\12--------------------|--
D|------------17--------------17------|-------------------------15/17--17--17/20--|--
A|------------------------------------|-------------------------------------------|--
E|------------------------------------|-------------------------------------------|--



E|-----------------------|------------------------15--18--18b20--|----------------|--
B|-----------------------|---------18--18b20--18-----------------|----------------|--
G|-----------------------|--15/17--------------------------------|--17b19--15p17--|--
D|--17/20\17--15/17--17--|---------------------------------------|----------------|--
A|-----------------------|---------------------------------------|----------------|--
E|-----------------------|---------------------------------------|----------------|--



E|------------------------------------------|---------------------|--
B|------------------------------------------|-----------------15--|--
G|------------------------------------------|--17b19--15--17------|--
D|------15--17--17b20--17b20--17b20--15h17--|---------------------|--
A|--17--------------------------------------|---------------------|--
E|------------------------------------------|---------------------|--



E|--------------------15--------------------|---------------------|--
B|---------18--18b20------18b20--18b20--15--|---------15--17--17--|--
G|--17b19-----------------------------------|--17b19--------------|--
D|------------------------------------------|---------------------|--
A|------------------------------------------|---------------------|--
E|------------------------------------------|---------------------|--



E|--------------------------------|--------------------|------15--18--|-----
B|---------15-----------------15--|---------18---------|--15----------|-----
G|--15/17------17b19--15--17------|--17b19------17b19--|--------------|-----
D|--------------------------------|--------------------|--------------|-----
A|--------------------------------|--------------------|--------------|-----
E|--------------------------------|--------------------|--------------|-----



E|------18--18b20--18b20--17------15--
B|--15------------------------18------
G|------------------------------------
D|------------------------------------
A|------------------------------------
E|------------------------------------
http://www.guitartabcreator.com
Guitar Tab Creator is intended to store guitar tab created through the tool. It currently does not support in-line text editing. Any text you place in here will be lost. If you need to comment on your tab, please use the "Tab Notes" section located below.