test 1

(/) Slide Up  (\) Slide Down  (h) Hammer On  (p) Pull Off  (b) Bend (r) Release (v) Vibrato


E|--5--------
B|-----6-----
G|--------7--
D|-----------
A|-----------
E|-----------



E|-----------------
B|-------------10--
G|--9--------------
D|---------10------
A|-----10----------
E|-----------------
http://www.guitartabcreator.com
Guitar Tab Creator is intended to store guitar tab created through the tool. It currently does not support in-line text editing. Any text you place in here will be lost. If you need to comment on your tab, please use the "Tab Notes" section located below.