CR

(/) Slide Up  (\) Slide Down  (h) Hammer On  (p) Pull Off  (b) Bend (r) Release (v) Vibrato

E|--------------
B|-----------3--
G|--------2-----
D|-----4--------
A|--5-----------
E|--------------



E|--------------------------------------------------------------------------------------------------
B|-----------3-----------2-----------2-----------2--------------------------------------------------
G|--------2-----------2-----------4-----------2--------------4-----------2-----------4-----------6--
D|-----4-----------2-----------4-----------2--------------5-----------4-----------5-----------7-----
A|--5-----------4-----------2-----------4--------------2-----------4-----------5-----------7--------
E|--------------------------------------------------3-----------2-----------3-----------5-----------



E|--
B|--
G|--
D|--
A|--
E|--
http://www.guitartabcreator.com
Guitar Tab Creator is intended to store guitar tab created through the tool. It currently does not support in-line text editing. Any text you place in here will be lost. If you need to comment on your tab, please use the "Tab Notes" section located below.