I will remember (Harmony solo)

(/) Slide Up  (\) Slide Down  (h) Hammer On  (p) Pull Off  (b) Bend (r) Release (v) Vibrato


E|--------------------------------------------------------------------------------------------
B|----------11--10----------13--11--10------11------10--11------------------------------8-----
G|------12----------12--10--------------12------12----------12--10--9--7--9--10--9--10--------
D|--13----------------------------------------------------------------------------------------
A|--------------------------------------------------------------------------------------------
E|--------------------------------------------------------------------------------------------



E|------------------------8--10--8--10--12------
B|-----8--10--11--10--11--------------------10--
G|--9-------------------------------------------
D|----------------------------------------------
A|----------------------------------------------
E|----------------------------------------------
http://www.guitartabcreator.com
Guitar Tab Creator is intended to store guitar tab created through the tool. It currently does not support in-line text editing. Any text you place in here will be lost. If you need to comment on your tab, please use the "Tab Notes" section located below.