Wipeout

(/) Slide Up  (\) Slide Down  (h) Hammer On  (p) Pull Off  (b) Bend (r) Release (v) Vibrato

E|-----------------------------------------------------------------------------------------------
B|--0--3--4--5--5--5--3--0--0--3--4--5--5--5--3--0--0--3--4--5--5--5--3--0--0--3--5--5--5--0--0--
G|-----------------------------------------------------------------------------------------------
D|-----------------------------------------------------------------------------------------------
A|-----------------------------------------------------------------------------------------------
E|-----------------------------------------------------------------------------------------------



E|--0--3--4--5--5--5--3--0--0--3--4--5--5--5--3--0--
B|--------------------------------------------------
G|--------------------------------------------------
D|--------------------------------------------------
A|--------------------------------------------------
E|--------------------------------------------------



E|-----------------------------------------------
B|--0--3--4--5--5--5--0--0--3--4--5--5--5--3--0--
G|-----------------------------------------------
D|-----------------------------------------------
A|-----------------------------------------------
E|-----------------------------------------------



E|--0--3--5--7--7--7--5--2--2--7--5--5--5--3--0--------------------------------2--------------------------
B|-----------------------------------------------0--3--4--5--5--5--3--0--0--5-----0--0--0--0--0--3--4--5--
G|--------------------------------------------------------------------------------------------------------
D|--------------------------------------------------------------------------------------------------------
A|--------------------------------------------------------------------------------------------------------
E|--------------------------------------------------------------------------------------------------------
http://www.guitartabcreator.com
Guitar Tab Creator is intended to store guitar tab created through the tool. It currently does not support in-line text editing. Any text you place in here will be lost. If you need to comment on your tab, please use the "Tab Notes" section located below.