green sleeves

(/) Slide Up  (\) Slide Down  (h) Hammer On  (p) Pull Off  (b) Bend (r) Release (v) Vibrato


E|-----------------------------------------------------------
B|-----------------------------------------------------------
G|--0--3--5--7--8--7--5--2-----0--2--3--0--0-----0--2--------
D|--------------------------3-----------------3--------3--0--
A|-----------------------------------------------------------
E|-----------------------------------------------------------



E|-----------------------------------------------------------
B|-----------------------------------------------------------
G|--0--3--5--7--8--7--5--2-----0--2--3--2--0-----------------
D|--------------------------3-----------------4--2--4--5--5--
A|-----------------------------------------------------------
E|-----------------------------------------------------------



E|--1--1--0--------------------------------------------
B|-----------3--1--------------------------------------
G|-----------------2-----0--2--3--0--0-----0--2--------
D|--------------------3-----------------4--------4--0--
A|-----------------------------------------------------
E|-----------------------------------------------------



E|--1--1--0--------------------------------------------
B|-----------3--1--------------------------------------
G|-----------------2-----0--2--3--2--0-----------------
D|--------------------3-----------------4--2--4--5--5--
A|-----------------------------------------------------
E|-----------------------------------------------------
http://www.guitartabcreator.com
Guitar Tab Creator is intended to store guitar tab created through the tool. It currently does not support in-line text editing. Any text you place in here will be lost. If you need to comment on your tab, please use the "Tab Notes" section located below.