Away in a manger

(/) Slide Up  (\) Slide Down  (h) Hammer On  (p) Pull Off  (b) Bend (r) Release (v) Vibrato


E|----------------------2h3--5--5--7--3--0h2--3--3--5--2--2-----2--0-----------
B|-----3--3--5/7--3--3---------------------------------------3--------0--3--2--
G|--2--------------------------------------------------------------------------
D|-----------------------------------------------------------------------------
A|-----------------------------------------------------------------------------
E|-----------------------------------------------------------------------------



E|-----------5-----------5-----------3-----------3--------------
B|--------3-----------5-----------3-----------3-----5-----5-----
G|-----2-----------6-----------4-----------3--------5--4--------
D|--4-----------7-----------5-----------5--------------------5--
A|--------------------------------------------------------------
E|--------------------------------------------------------------



E|--
B|--
G|--
D|--
A|--
E|--
http://www.guitartabcreator.com
Guitar Tab Creator is intended to store guitar tab created through the tool. It currently does not support in-line text editing. Any text you place in here will be lost. If you need to comment on your tab, please use the "Tab Notes" section located below.