Amor Como Fuego Solo Riff

(/) Slide Up  (\) Slide Down  (h) Hammer On  (p) Pull Off  (b) Bend (r) Release (v) Vibrato


E|----------------------------------------------------------------------
B|--14--14--14--14--s13--13--13\9--s16--16--16--16--s14--14--14--14-----
G|---------------------------------------------------------------------- 2x
D|----------------------------------------------------------------------
A|--11--11--11--11--s10--10--10\6--s13--13--13--13--s11--11--11--11-----
E|----------------------------------------------------------------------



E|----------------------------------------------------------------------
B|--11--11--11--11--s13--13--13--13--s14--14--14--14--s16--16--16--16---
G|----------------------------------------------------------------------
D|----------------------------------------------------------------------
A|--8---8---8---8---s10--10--10--10--s11--11--11--11--s13--13--13--13---
E|----------------------------------------------------------------------



E|----------------------------------------------------------------------
B|--11--11--11--11--s13--13--13--13--s14--14--14--14--s16--16--16/14--14
G|----------------------------------------------------------------------
D|----------------------------------------------------------------------
A|--8---8---8---8---s10--10--10--10--s11--11--11--11--s13--13--13/11--11
E|----------------------------------------------------------------------
http://www.guitartabcreator.com
Guitar Tab Creator is intended to store guitar tab created through the tool. It currently does not support in-line text editing. Any text you place in here will be lost. If you need to comment on your tab, please use the "Tab Notes" section located below.