Skyrim (Laudkelele)

Skyrim 

B |-2-2-2-2-2-2-2-2-2-2-2-2-4-5-|
F#|-----------------------------| intro
C#|-0---------------------------| x3
F#|-------2-----3-----0---------|

B |-2-2-2-2-2-2-2-2-2-4-5-2-4-5-|
F#|-----------------------------|
C#|-0-----------------2---------|
F#|-------2-----3---------------|


B |-2------------0-----0-------------------------------|
F#|-0-----0------0---0---0----3-----3-----2-----2------| (estrofa 1)
C#|-----0---0----1-1--------1-1---1---1---3---3---3----|
F#|-0-0-------0--3------------3-3-------3-2-2-------2--|

B |--------------0-----0-------------------------------|
F#|-0-----0------0---0---0----3-----3-----2-----2------| (estrofa 2)
C#|-----0---0----1-1--------1-1---1---1---3---3--------|
F#|-0-0-------0--3------------3-3-------3-5-5----------|


B |-----------------------0-------------|
F#|-3-2-3-----3-2-3---2-3-0-3-2-0-------| (estribillo 1)
C#|---------0-------1---------0-----0---|
F#|-----0-0-------3---------3---0-0-----|

B |-------------------------------------|
F#|-0---0-----0---0-------0-2-3-2-0-----|
C#|---3-0---0---3-1---1-3-----0-------0-|
F#|-----0-0-------3-3-------2-----0-0---|

B |---------0-2-2-5-0----------|
F#|-0-2-3-3---0-------3-2-0----| (estribillo 2)
C#|-----0-----0----------------|
F#|-----0-----------0-----0----|

B |-------------------------------------------|
F#|-0---0-----0---0-------0-2-3-2-0-----0-----|
C#|---3-0---0---3-1---1-2-----0-------0---0---|
F#|-----0-0-------3-3-------2-----0-0-------0-|



B |---------0-2-2-5-0-----------------------|
F#|-0-2-3-3---3-----5-3-2-0-----------------| (Parte de Obvlivion 1)
C#|-----0-----3-----5-----0-----------------|
F#|-----0-----3-----5-----0-----------------|

B |---------0-2-2-5-7-5-9-7----------------|
F#|-0-2-3-3---3-----5-----5----------------|
C#|-----0-----3-----5-----5----------------|
F#|-----0-----3-----5-----5----------------|


B |-7-9-10---9---7---5---3---2---0---2-0-------0---|
F#|--------0---0---0---0---0---0-5-3-----5-3-2-0---| (Parte de Obvlivion 2)
C#|------0-----------------------5-------5-----0---|
F#|------------------3-----------5-------5-----0---|


...(Parte de Obvlivion 1) otra vez.

...(estribillo 1 + 2) otra vez

B |-2--2--2--2------|
F#|-0--0--0--0-0----| (Final)
C#|-0--0--0--0-5----| X2
F#|-0--0--0--0-0----|
Guitar Tab Creator is intended to store guitar tab created through the tool. It currently does not support in-line text editing. Any text you place in here will be lost. If you need to comment on your tab, please use the "Tab Notes" section located below.