Le tourdion

LE TOURDION

B |-------0-------------0-2-0-----0-----------------0-----------------------|
F#|-0-2-3---3-2-0-0-2-3-------3-3---2-3-2-0---0-2-3---3-2-0-3-2-0-0---0-----|
C#|-------0---------------------------0-----3-------0---------------3---0-3-| X2
F#|-0-----------0---------0-------------------0-----------0-----0-----0-----|

B |-2-0-2-3-2-2-5-4-2---------------2-0-2-3-2-0-----------------------------|
F#|-0-------0---0-----5-3-2-3-2-0---0-------0---3-2-0-0---0-----------------|
C#|-0-------0---0-----------0-----3-0-------0-----------3---0-3-------------| X2
F#|-0-------0---0-----------0-------0-------0-------0-----0-----------------|

B |-------0-------------0-2-0-----0-----------------0-----------------------|
F#|-0-2-3---3-2-0-0-2-3-------3-3---2-3-2-0---0-2-3---3-2-0-3-2-0-0---0-----|
C#|-------0---------------------------0-----3-------0---------------3---0-3-| X2
F#|-0-----------0---------0-------------------0-----------0-----0-----0-----|

http://elzulodelbardo.blogspot.com.es/
Guitar Tab Creator is intended to store guitar tab created through the tool. It currently does not support in-line text editing. Any text you place in here will be lost. If you need to comment on your tab, please use the "Tab Notes" section located below.