Improvisación con Laudkelele

Primera improvisación con Laudkelele

http://youtu.be/Dr8_xilZxtA

B |-0-------------------2---3-2-5-3-2-0--------------------|
F#|-0-----0-2-3-2-3-2-0---0-----0-------3-2---0-0---2-0----|
C#|-0---0-----------------------0-----------3-----0--------| Min 0:00
F#|-0-0-----------------0-----0-0---------------0-----0----|

B |-2-2-3-2-2-0---------------------0----------------------|
F#|-0-------0---3-2---2---0-0-2-3-2---3-2---0-----0--------|
C#|-0-------0-------3---3-0---------------3---3-0----------| Min 0:16
F#|-0-------0-------------0--------------------------------|

B |-7-5-4-2-3-2-0-0-2-3-5-3-2-3-2-0-2--------|
F#|-0-----0-----0----------------------------|
C#|-0-----0-----0----------------------------| Min 0:38
F#|-0-----0-----0----------------------------|

B |------------------------------0-------------------|
F#|-0---2-3-2-0---0---3-2--0-2-3---3-2-0---0---2-0---|
C#|---0---------3---0---0--------0-------3---0-------| Min 0:47
F#|-0-----0-------0--------0---------------0---0-0---|

B |-3-3-2-2-0-------------|
F#|-0---0---0-3-2-0---2-2-|
C#|-0---0---0-------3-----| x4 Min 1:15
F#|-0---0---0-------------|

B |-----------0-2---2-----2---5---3---2-0-0-----------------|
F#|-0---2-3-------------0---0---0---0-------3-2---0-----2-0-|
C#|---0-----0-----0---0-------------------------3---0-3-----| Min 1:30
F#|-0-----0-----0---0-------------------0---------0-------0-|


http://elzulodelbardo.blogspot.com.es/
Guitar Tab Creator is intended to store guitar tab created through the tool. It currently does not support in-line text editing. Any text you place in here will be lost. If you need to comment on your tab, please use the "Tab Notes" section located below.