Cancioncilla renacentista (Para laudkelele)

Cancioncilla renacentista (VersiĆ³n de laudkelele)

B |----------------------0-2-2-2-0-------------------- |
F#|-0-2-3-3-2--------2-3---0---0----3-2-0---0-----0---.|
C#|-----0-----4-2-0--0-----0---0------3---3-0-0-4-0---.|x2
F#|-----0-----2------0-----0---0------2-----0-----0--- |

B |-------------------0-2----------------------------- |
F#|-0-2-3-2-3-2-0-2-3-----2-3-2-3-0-2-3-2-0-2-0-----0-.|
C#|-----0-----3-----0-----3-----0-------3-----0-0-4-0-.|x2
F#|-----0-----2-----0-----2-----0-------2-----0-----0- |


B |----------------------0-2-2-2-0----------------7---|
F#|-0-2-3-3-2--------2-3---0---0----3-2-0---0-----0---|
C#|-----0-----4-2-0--0-----0---0------3---3-0-0-4-0---|
F#|-----0-----2------0-----0---0------2-----0-----0---|

R.Guerrero

http://elzulodelbardo.blogspot.com.es/
Guitar Tab Creator is intended to store guitar tab created through the tool. It currently does not support in-line text editing. Any text you place in here will be lost. If you need to comment on your tab, please use the "Tab Notes" section located below.