Cancioncilla renacentista

CanciĆ³n renacentista - Rodrigo Guerrero Alonso



E|------0-----1---0---------------------0--1--3--5--5----5--
B|--3--------3-------3---23232---0--------------------------
G|-----------------------------------2------------------5---
D|----------0------------0------------------0--2--3----3----
A|--------------------------------------3-------------------
E|----------------------------------------------------------

E|--3------010------------------------- |
B|-----6--------3--1-----3----2--3----- .|
G|----------------------2--2--2--2----- | x2
D|---------------------0------2--0----- .|
A|---------3------------------0-------- |
E|------------------------------------- |



E|------0-----1---0--1---0----------1--3--5--0-----0----1-
B|--3--------3--------------3--1---1------------3------3--
G|--------------------------------------------------------
D|----------0---------------------3-------------------0---
A|-----------------------3-------------------3------------
E|--------------------------------------------------------

E|--0--1---0--------------------------- |
B|-------------3--0------3----2--3----- |
G|----------------------2--2--2--2----- | x2
D|---------------------0------2--0----- |
A|---------3------------------0-------- |
E|------------------------------------- |



E|------0-----1---0---------------------0--1--3--5--5----5-
B|--3--------3-------3---23232---0-------------------------
G|-----------------------------------2------------------5--
D|----------0------------0------------------0--2--3----3---
A|--------------------------------------3------------------
E|---------------------------------------------------------

E|--3------010------------------------- |
B|-----6--------3--1-----3----2--3----- |
G|----------------------2--2--2--2----- |
D|---------------------0------2--0----- |
A|---------3------------------0-------- |
E|------------------------------------- |


http://elzulodelbardo.blogspot.com.es/
Guitar Tab Creator is intended to store guitar tab created through the tool. It currently does not support in-line text editing. Any text you place in here will be lost. If you need to comment on your tab, please use the "Tab Notes" section located below.