MS 10

(/) Slide Up  (\) Slide Down  (h) Hammer On  (p) Pull Off  (b) Bend (r) Release (v) Vibrato


E|--0--2p0--2--5p2--
B|--2-------2-------
G|--1-------2-------
D|--2-------0-------
A|--0---------------
E|------------------



E|-----------------------
B|-----------------------
G|--6--7--7-----6--2--1--
D|--7--9--7-----7--4--2--
A|--7--9--9-----7--4--2--
E|--5--7--10----5--2--0--



E|-----------------------------------------------
B|-----------------------------------------------
G|-----------------------------------------------
D|--7----7--------12-----------------7--7--4--2--
A|--7----7--------12--7h9--7---------7--7--4--2--
E|--5----5--7--9--10----------9p7p0--5--5--2--0--



E|--0----0----3-----
B|--2----3----0--7--
G|--1----0----0--7--
D|--2----2----0--7--
A|--0----3----------
E|------------3--5--



E|--------------------------------0-------------------------------------------------------------
B|--------------2--------------------------------2----------------3-----------------3-----------
G|--------1--------1--------1--------1--------1-------------0--------0--------0--------0--------
D|-----2-----------------2-----------------2-------------2-----------------2--------------------
A|--0--------0--------0--------0--------0-----------0/3--------3--------3--------3--------3-----
E|----------------------------------------------------------------------------------------------



E|--------------------------------3-----------------------------------------------------------------
B|--------------0--------------------0-----------0--------------7-----------------7--------------7--
G|--------0--------0--------0-----------------0-----------7--------7--------7--------7--------7-----
D|-----0-----------------0-----------------0-----------7-----------------7-----------------7--------
A|--------------------------------------------------------------------------------------------------
E|--3--------3--------3--------3--------3-----------5--------5--------5--------5--------5-----------
http://www.guitartabcreator.com
Guitar Tab Creator is intended to store guitar tab created through the tool. It currently does not support in-line text editing. Any text you place in here will be lost. If you need to comment on your tab, please use the "Tab Notes" section located below.