Maajun - Davy Graham

(/) Slide Up  (\) Slide Down  (h) Hammer On  (p) Pull Off  (b) Bend (r) Release (v) Vibrato


E|-------------------------------------------------------------------------------------
B|--------------0--------0--------0-----0-----0-----0-----0-----0-----0-----0h1p0h1p0--
G|-----------0-----0--2-----2--4-----2-----0-------------------------------------------
D|--0--2--4--------------------------------------4-----2-----0-------------------------
A|-----------------------------------------------------------------4-----0-------------
E|-------------------------------------------------------------------------------------



E|--------------------------------------------------------------------
B|--------------------------------------------------------------------
G|-----------0h2p0-----0h2p0-----0h2p0--2--3--3--3--3--3--2-----------
D|--0--2--4---------4---------4------------------------------4--2--0--
A|--------------------------------------------------------------------
E|--------------------------------------------------------------------



E|--0----0--0--0--0-----0--0--
B|--0----0--0--0--0-----0--0--
G|--7----7--7--7--7--5--7--7--
D|--7----7--7--7--7--5--7--7--
A|--5----5--5--5--5--3--5--5--
E|--0----0--0--0--0-----0--0--



E|---------------------------------------------------------
B|---------------------------------------5--5--3--5--0-----
G|----------------------7--5h7--5-----------------------0--
D|--0--0----0--3--5--7-------------7--5--------------------
A|---------------------------------------------------------
E|---------------------------------------------------------
http://www.guitartabcreator.com
Guitar Tab Creator is intended to store guitar tab created through the tool. It currently does not support in-line text editing. Any text you place in here will be lost. If you need to comment on your tab, please use the "Tab Notes" section located below.